Song name
# A B C D E F G H I J K L M N O P Q R S T U V W X Y Z

Sunk Loto - Soul Worn Thin tab

ALBUM: BETWEEN BIRTH AND DEATH
SONG: SOUL WORN THIN (TRACK 12)
TUNING: DROP C (C,G,C,F,A,D,)


THIS IS THE FIRST TAB FOR THIS SONG,I COULDNT FIND IT ANYWHERE ON THE NET SO I TABBED IT 
AND IT SHOULD BE 100%.PLZ RATE THIS.


} = delay counts
* = palm mute
h = hammer on
p = pull off

INTRO (CLEAN/DELAY)

D------------------------]---------------------------|
A------------------------]---------------------------|
F----2h3p2-0---0---0---0-]--2h3p2-0---0---0---0---0--|
C--0---------3---5-------]----------3---5------------|
G--------------------6---]------------------6---6----|
C------------------------]---------------------------|

D------------------------]----------------------------|
A------------------------]----------------------------|
F--2h3p2-0---0---0---0---]--2h3p2-0---0---0-----------|-}-}-}-}
C----------3---5---------]----------3---5-------------|
G------------------6-----]----------------------------|
C------------------------]----------------------------|


  RIFF 1 DIST (SLIGHT PALM MUTE)

D-----------13-12-------------]-------------------------------]
A----------------13-----------]-------------------------------]
F-----------------------------]-------------------------------]
C--12-12-12----------10-12-12-]-12-12-12--15-14---------------]
G-----------------------------]----------------15--15-17-17---]
C-----------------------------]-------------------------------]


D----------------------------]--------------------------------]
A---------------------13-15--]----------13-12-----------------]
F----------------------------]--------------------------------]
C--15-15-15--15-14-----------]-15-15-15--------17-15----------]
G-----------------15---------]-----------------------15-17-17-] X2 (WHOLE)
C----------------------------]--------------------------------]    (LOT)


  VERSE RIFF (CLEAN/DELAY)

D--17-------13-15--------------15-12-------12-13-15-----]
A-----13-15-------11-10-13--11-------13-11--------------]
F-------------------------------------------------------]
C-------------------------------------------------------]
G-------------------------------------------------------] X2
C-------------------------------------------------------]

  PRE-CHORUS

D-------------------------------------------------------------]
A-------------------------------------------------------------]
F---------------------------------10-10---------10-10---------]
C--------8-------8-------8-7-3-5--10-10--DRUMS--10-10---------]
G--------8-------8-------8-7-3-3---8--8----------8--8--DRUMS--]
C--000-0-8-000-0-8-000-0-8-7-3--------------------------------]
   *** *   *** *   *** *


D----------------------]
A----------------------]
F--10------------------]
C--10------------------]
G---8-8-10-8-5--8-5-8--]
C-----8-10-8-5--8-5-8--]

 CHORUS ,"you were not willing to sacrifice...."
                                                        4th time
D------------------------------]----------------x3]----------------]
A------------------------------]------11-11-11----]-------13-13-13-]
F------------------------------]------10-10-10----]-------12-12-12-]
C--888888888888-333333-666666--]--0-0--8--8-8-----]--0-0--10-10-10-]
G--888888888888-333333-444444--]--0-0--8--8-8-----]--0-0--10-10-10-]
C--888888888888-333333---------]--0-0--8--8-8-----]--0-0--10-10-10-]


 "all of the drugs to stay alive...."

D------------------------------]
A------------------------------]
F------------------------------]
C--888888888888-333333-666666--]
G--888888888888-333333-444444--]
C--888888888888-333333---------]


 "i know its hard to stay alive..................."

D--------------------------------------------------]
A--------------------------------------------------]
F------DRUMS-----DRUMS-----------------------------]
C--0-0-------0-0-------888888888888-333333-666666--]
G--0-0-------0-0-------888888888888-333333-444444--]
C--0-0-------0-0-------888888888888-333333---------]

play

RIFF 1 X1
VERSE RIFF
PRE-CHORUS
CHORUS

THEN


              INTERLUDE (CLEAN)   RIFF A

D----------------------------------------------------------------]
A-13-13-13-13-13-13-13-13-13-13-13-13-13-13-13-13-13-13-13-13-13-]
F----------------------------------------------------------------]
C----------------------------------------------------------------]
G----------------------------------------------------------------]
C----------------------------------------------------------------]

D---------------------------------------------------------]
A-11-11-11-11-11-11-11-11-11-11-11-11-11-11----11---------]
F-------------------------------------------12----12------]
C---------------------------------------------------------]
G---------------------------------------------------------] X2
C---------------------------------------------------------]

     RIFF B (CLEAN)
D---------------------------]
A---------------------------]
F--8p7--8p7--8p7--8p7--7----]
C--7----7----7----7----7----]
G---------------------------] X8
C---------------------------]


   RIFF C (DIST)  GTR 1                     GTR 2 (AFTER X4 RIFF C)
D-------------------------------]        [D-----------------------]
A-------------------------------]        [A-----------------------]
F--10--8p7--8p7--8p7--8p7--10---]        [F-----------------------]
C---7--7----7----7----7-----7---]        [C-----------------------]
G---7-----------------------7---] X4     [C--0-0-0-0-0-0-0-0-0-0--]
C-------------------------------]        [G--0-0-0-0-0-0-0-0-0-0--]

 "STAY ALIVE.........................."


D--------------------------------------]
A--------------------------------------]
F--------------------------------------]
C--------------------------------------]
G--888888-888888-888888-888888-00-0-0--]
C--888888-888888-888888-888888-00-0-0--]
                               ** * *


D------------------------------------]
A------------------------------------]
F------------------------------------]
C------------------------------------]
G--888888-888888-888888-10-10-10-10--]
C--888888-888888-888888-10-10-10-10--]

D------------------------------------------------------------]
A------------------------------------------------------------]
F------------------------------------------------------------]
C------------------------------------------------------------]
G--000000-000000-000000-000000--555555-555555-555555-555555--]
C--000000-000000-000000-000000--555555-555555-555555-555555--]


D------------------------------------------------------]
A------------------------------------------------------]
F------------------------------------------------------]
C------------------------------------------------------]
G--888888-888888-11-11-11-11-11-11--11-11-11-11-11-11--]
C--888888-888888-11-11-11-11-11-11--11-11-11-11-11-11--]

D------------------------------------------------------------]
A------------------------------------------------------------]
F------------------------------------------------------------]
C------------------------------------------------------------]
G--000000-000000-000000-000000-888888-888888-888888-8888888--]
C--000000-000000-000000-000000-888888-888888-888888-8888888--]


   "STAY A...LIVEEEEEEE!!!
D-----------------]------------------------------------------]
A-----------------]------------------------------------------]
F-----------------]------------------------------------------]
C--------------5--]------------------------------------------]
G--5-5-5-8-8-3-3--]------------------------------------------]
C--5-5-5-8-8-3----]--100111000-10111000-100111000-100111000--]
                     ********* ******** ********* *********


   WITH DRUMS                   WITHOUT
D---------------------------]-------------------------]
A---------------------------]-------------------------]
F---------------------------]-------------------------]
C---------------------------]-------------------------]
G---------------------------]-------------------------]
C--1-0-1-0-000-1-0-1-0-000--]--00-1-0-1-0-00-1-0-1-0--]
           ***         ***     **         **

D---------------------------------------------------]
A---------------------------------------------------]
F---------------------------------------------------]
C---------------------------------------------------]
G--1-0-1-0-----1-0-1-0-----1-0-1-0-----1-0-1-0------]
C--1-0-1-0-00--1-0-1-0-00--1-0-1-0-00--1-0-1-0-00---]
           **          **          **          **

PLAY CHORUS RIFF X1

THEN


D------------------------------]
A------------------------------]
F------------------------------]
C--888888888888-333333-666666--]
G--888888888888-333333-444444--] X2
C--888888888888-333333---------]

   OUTRO (FADE OUT)
D---------------------------]
A---------------------------]
F--8p7--8p7--8p7--8p7--7----]
C--7----7----7----7----7----]
G---------------------------]
C---------------------------]

 THE END.

 IM ALSO GONNA TAB PUBLIC IMAGERY CAUSE I CANT FIND THAT SONG EITHER.
 SO ILL POST THAT ONE LATER,ANYWAY PLZ RATE THIS.


 TABBED BY:TAB_MAN84
Tap to rate this tab
# A B C D E F G H I J K L M N O P Q R S T U V W X Y Z