Guitaretab - guitar tabs
Song name
# A B C D E F G H I J K L M N O P Q R S T U V W X Y Z

Sunk Loto - Public Imagery tab

SONG: PUBLIC IMAGERY
ALBUM: BETWEEN BIRTH AND DEATH
TUNING: DROP C (C,G,C,F,A,D,)

/ = SLIDE
* = PALM MUTE
" = TREM PICK (PICK AS FAST AS YOU CAN)


 THIS IS THE FIRST TAB OF THIS SONG I COULDNT FIND IT ANYWHERE SO I TABBED  IT 
100% CORRECT,PLZ RATE THIS,AND IF YOU WANT ANYMORE SUNK LOTO SONGS TABBED LET ME KNOW CAUSE I 
THERES NOT MANY TABS FOR SUNK LOTO.


 INTRO

D-------------------]
A-------------------]
F-------------------]
C-------3-2---------]
G--2-3--1-0--4-5----] X1
C--2-3-------4-5----]


 RIFF 1
                                                8TH TIME PLAY THIS.
D--------------------------------------X7]----------------------------------|
A----------------------------------------]----------------------------------|
F----------------------------------------]----------------------------------|
C----------------------------------------]----------------------------------|
G--6/2--3-3-2--0-2----6/2--2-3-0--2-3-0--]--6/2--3-3-2--0-2----/5-2--/7-2---|
C--6/2--3-3-2--0-2----6/2--2-3-0--2-3-0--]--6/2--3-3-2--0-2----/5-2--/7-2---|


 VERSE RIFF

D-----------------X4]
A-------------------]
F-------------------]
C-------------------]
G--3202--023-4------]
C--3202--023---2----]


  PRE-CHORUS
D------------]------------]------------]------------]
A------------]------------]------------]------------]
F------------]------------]------------]------------]
C------------]------------]------------]------------]
G------------]------------]------------]------------]
C--333-0-0-2-]--555-0-0-2-]--777-0-0-2-]--999-0-0-2-]
   *** * * *    *** * * *    *** * * *    *** * * *

D------------]------------]------------]------------]
A------------]------------]------------]------------]
F------------]------------]------------]------------]
C------------]------------]------------]------------]
G------------]------------]------------]------------]
C--333-0-0-2-]--555-0-0-2-]--777-0-0-2-]--999-0-0---]
   *** * * *    *** * * *    *** * * *    *** * *


  CHORUS

D----------------------------X3]
A------------------------------]
F--9----------7-7--------------]
C--9----------7-7--5-7--2-2----]
G--7----------5-5--3-3--0-0----]
C----0-0-0-0-------------------]
     * * * *


  4TH TIME PLAY THIS
D------------------------------]
A------------------------------]
F--9----------7-7--------------]
C--9----------7-7--------------]
G--7----------5-5--------------]
C----0-0-0-0-------------------]
     * * * *

[ Tab from: http://www.guitaretab.com/s/sunk-loto/72004.html ]
  PLAY THIS 1ST TIME       GTR1                   GTR2
D----------------------]--------------------X3]----------------------X3]
A----------------------]----------------------]------------------------]
F----------------------]----------------------]------------------------]
C-------222222222------]-----------222222222--]--232---2-32--222222222-]
G----------------------]----------------------]------4-----------------]
C--3202----------------]--23202-32------------]------------------------]
   **** *********         ***** ** *********     *** * * **  *********

  4TH TIME PLAY THIS
D--------------------]
A--------------------]
F--------------------]
C--------------------]
G--000-000-----------]
C--000-000-----------]
   *** ***

  RIFF 4

D--------------------------------------------------X4]
A----------------------------------------------------]
F----------------------------------------------------]
C----------------------------------------------------]
G--3-----2-2----333-0-2-2----3-----2-2----000-000----]
C--3-000-2-2----333-0-2-2----3-000-2-2----000-000----]
     ***        *** * * *      ***        *** ***

D--------------------------------------X2]
A----------------------------------------]
F----------------------------------------]
C----------------------------------------]
G--6/2--3-3-2--0-2----6/2--2-3-0--2-3-0--]
C--6/2--3-3-2--0-2----6/2--2-3-0--2-3-0--]

THEN PLAY CHORUS RIFF X4


THEN.


D------------]------------]------------]------------]
A------------]------------]------------]------------]
F------------]------------]------------]------------]
C------------]------------]------------]------------]
G------------]------------]------------]------------]
C--333-0-0-2-]--555-0-0-2-]--777-0-0-2-]--999-0-0-2-]
   *** * * *    *** * * *    *** * * *    *** * * *


D------------------------------]
A------------------------------]
F------------------------------]
C------------------------------]
G------------------------------]  X4 (WHOLE LOT)
C--3"-2"--5"-2"--7"-2"--9"-2"--]


  END OF 4TH TIME
D---------------------]
A---------------------]
F---------------------]
C--------------4------]
G--2-5--2-7--2-2------]
C--2-5--2-7--2--------]


    OUTRO
D--------------------------------------------------X4]
A----------------------------------------------------]
F----------------------------------------------------]
C----------------------------------------------------]
G--3-----2-2----333-0-2-2----3-----2-2----000-000----]
C--3-000-2-2----333-0-2-2----3-000-2-2----000-000----]
     ***        *** * * *      ***        *** ***


 THE END. ITS A PRETTY EASY SONG TO PLAY ONCE YOU LEARN IT AND ITS AN AWSOME SONG.


  TABBED BY:TAB_MAN84
Related for Public Imagery tab
Advertisement will be closed in 10 seconds