Song name
# A B C D E F G H I J K L M N O P Q R S T U V W X Y Z

Sunk Loto - Starved tab

Help us improve GuitareTab! Take a short survey!
BAND: SUNK LOTO
SONG: STARVED
ALBUM: BETWEEN BIRTH AND DEATH
TUNING: DROP C (C,G,C,F,A,D,)


 THIS IS THE FIRST TAB FOR THIS SONG,AND ITS 100%.PLZ RATE THIS.

* = PALM MUTE
/ = SLIDE
~ = LET NOTE RING


  INTRO (CLEAN)
D--------------]---------------]---------------]--------------]
A--------------]---------------]---------------]--------------]
F--------------]---------------]---------------]--------------]
C---------0----]----------0----]----------0----]---------0----]
G----4------4--]----4-------4--]----4-------4--]----4------4--]
C--0---0-------]--0---0--------]--4---4--------]--4---4-------]


D--------------]--------------]
A--------------]--------------]
F--------------]--------------]
C---------0----]---------0----]
G----0------0--]----0------0--]
C--3---3-------]--4---4-------]



  VERSE

D--------------]---------------]---------------]------------X4]
A--------------]---------------]---------------]--------------]
F--------------]---------------]---------------]--------------]
C---------0----]----------0----]----------0----]---------0----]
G----4------4--]----4-------4--]----4-------4--]----4------4--]
C--0---0-------]--0---0--------]--4---4--------]--4---4-------]



   5TH TIME
D--------------]--------------]---------------]------------]
A--------------]--------------]---------------]------------]
F--------------]--------------]---------------]------------]
C---------0----]---------0----]----------0----]------0-----]
G----0------0--]----0---------]----0-------0--]----0-------]
C--3---3-------]--4---4-------]--3---3--------]--4---------]





  PRE-CHORUS (CLEAN)
D---------------------------------------------------X2]
A-----------------------7-7-----------------10-10-----]
F-----------------------6-6------------------9-9------]
C-----------------------4-4------------------7-7------]
G-----------------------------------------------------]
C--8-8-8--7-7-7--4~~-------------3~-5~-0~-------------]


  AFTER 2ND TIME
D------------------------------]
A------------------------------]
F------------------------------]
C------------------------------]
G------------------------------]
C--8-8-8--7-7-7--3-3-3--5-5-5--]




  CHORUS  GTR1
D---------------------------------------X4]
A-----------------------------------------]
F-----------------------------------------]
C-----------------------------------------]
G--00000000-33333333-88888888-8/5-555555--]
C--00000000-33333333-88888888-8/5-555555--]


 CHORUS GTR 2

D--17--------17-17------17-----]--15---------15---------15-----]
A-----15-15---------15-----15--]------11-11------11-11-----11--]
F------------------------------]-------------------------------]
C------------------------------]-------------------------------]
G------------------------------]-------------------------------]
C------------------------------]-------------------------------]



D--17--------17-17------17-----]--15---------15---------15-----]
A-----15-15---------15-----15--]------13-13------13-13-----13--]
F------------------------------]-------------------------------]
C------------------------------]-------------------------------] X4
G------------------------------]-------------------------------]
C------------------------------]-------------------------------]



THEN 
VERSE
PRE-CHORUS
CHORUS


        INTERLUDE1 (SLIGHT P.M) GTR 2             INTERLUDE 2 GTR2    
                                         7TH TIME (WITH WAH & DELAY)
D------]-------------5-------7---X6]--12}}}}}}}}-}}}}}}}}-----------X1]
A------]--------5-8-----8-5--------]----------------------------------]
F------]------5--------------------]----------------------------------]
C------]----7----------------------]----------------------------------]
G--0~--]---------------------------]----------------------------------]
C--0~--]---------------------------]----------------------------------]


 GTR1 (AFTER X3 OF GTR2 INTERLUDE 1)
D-------------------------------X1]------------------------------X9]
A---------------------------------]--------------------------------]
F---------------------------------]--------------------------------]
C---------------------------------]--------------------------------]
G--77777777-55555555-33333333-----]--77777777-55555555-33333333----]
C--77777777-55555555-33333333-----]--77777777-55555555-33333333----]
   ******** ******** ********


  10TH TIME
D------------------------------]
A------------------------------]
F------------------------------]
C------------------------------]
G--77777777-55555555-33333000--]
C--77777777-55555555-33333000--]




  OUTRO (CLEAN)

D--1----1--------0----0-----------------------------------X3]
A--0----0--------5----5--------0----0-----------3----3------]
F------------------------------1----1-----------4----4------]
C-----------------------------------------------------------]
G----0-----0--------0----0--------0----0----------0----0----]
C-----------------------------------------------------------]


  4TH TIME

D--1----1--------0----0-------------]
A--0----0--------5----5--------0~---]
F------------------------------1~---]
C-----------------------------------]
G----0-----0--------0----0-----0~---]
C-----------------------------------]




 THE END.


 THATS ALL IT SHOULD BE 100%,PLZ RATE IT.


 TABBED BY: TAB_MAN84
Related for Starved tab