Song name
# A B C D E F G H I J K L M N O P Q R S T U V W X Y Z

Sunlounger - White Sand tab

White Sand - Sunlounger

Part 1.
 | 1 e & a 2 e & a 3 e & a 4 e & a | 1 e & a 2 e & a 3 e & a 4 e & a |
e|---------------------------------|---------------------------------|
B|---------------------------------|---------------------------------|
G|-9-9-9-9-9-9-9-9-9-9-9-9-9-9-9-9-|-9-9-9-9-9-9-9-9-9-9-9-9-9-9-9-9-|
D|-9-9-9-9-9-9-9-9-9-9-9-9-9-9-9-9-|-9-9-9-9-9-9-9-9-9-9-9-9-9-9-9-9-|
A|-7-7-7-7-7-7-7-7-7-7-7-7-7-7-7-7-|-6-6-6-6-6-6-6-6-6-6-6-6-6-6-6---|
E|-0-0-0-0-0-0-0-0-0-0-0-0-0-0-0-0-|-------------------------------0-|

 | 1 e & a 2 e & a 3 e & a 4 e & a | 1 e & a 2 e & a 3 e & a 4 e & a |
e|---------------------------------|---------------------------------|
B|---------------------------------|---------------------------------|
G|---------------------------------|---------------------------------|
D|-4-4-4-4-4-4-4-4-4-4-4-4-4-4-4-4-|/7-7-7-7-7-7-7-7-7-7-7-7-7-7-7-7-|
A|-4-4-4-4-4-4-4-4-4-4-4-4-4-4-4-4-|/7-7-7-7-7-7-7-7-7-7-7-7-7-7-7-7-|
E|-2-2-2-2-2-2-2-2-2-2-2-2-2-2-2-2-|/5-5-5-5-5-5-5-5-5-5-5-5-5-5-5-5-|



Part 2.
 | 1 e & a 2 e & a 3 e & a 4 e & a | 1 e & a 2 e & a 3 e & a 4 e & a |
e|---------------------------------|---------------------------------|
B|---------------------------------|---------------------------------|
G|---------------------------------|---------------------------------|
D|-----9-----9-----9-----9-----9-9-|-----9-----9-----9-----9-----9---|
A|-7-------7-----7-----7-----7-----|-6-------6-----6-----6-----6---6-|
E|---------------------------------|---------------------------------|

 | 1 e & a 2 e & a 3 e & a 4 e & a | 1 e & a 2 e & a 3 e & a 4 e & a |
e|---------------------------------|---------------------------------|
B|---------------------------------|---------------------------------|
G|---------------------------------|---------------------------------|
D|-----2-----2-----2-----2-----2-0-|---------------------------------|
A|---------------------------------|-----7-----7-----7-----7-----7-7-|
E|-2-------2-----2-----2-----2-----|-5-------5-----5-----5-----5-----|



Part 3.
 | 1  e  &  a  2  e  &  a  3  e  &  a  4  e  &  a  |
e|-------------------------------------------------|
B|b14r12-9--12-12----12----------------------------|
G|-------------------------------------------------|
D|-------------------------------------------------|
A|-------------------------------------------------|
E|-------------------------------------------------|

 | 1  e  &  a  2  e  &  a  3  e  &  a  4  e  &  a  |
e|-11-12-------11-12-------11-12-------------------|
B|-------9-----------9-----------9-----------------|
G|-------------------------------------------------|
D|-------------------------------------------------|
A|-------------------------------------------------|
E|-------------------------------------------------|

 | 1  e  &  a  2  e  &  a  3  e  &  a  4  e  &  a  |
e|-------------------------------------------------|
B|-10----------9-----------------------------------|
G|-------------------------11----------9-----------|
D|-------------------------------------------------|
A|-------------------------------------------------|
E|-------------------------------------------------|

 | 1  e  &  a  2  e  &  a  3  e  &  a  4  e  &  a  |
e|-------------------------------------------------|
B|-10----------9-----------------------------------|
G|-------------------------11----------9-----------|
D|-------------------------------------------------|
A|-------------------------------------------------|
E|-------------------------------------------------|

 | 1  e  &  a  2  e  &  a  3  e  &  a  4  e  &  a  |
e|-------------------------------------------------|
B|-------------9-----10-9--------------------------|
G|----9-----11-------------------------------------|
D|-------------------------------------------------|
A|-------------------------------------------------|
E|-------------------------------------------------|

 | 1  e  &  a  2  e  &  a  3  e  &  a  4  e  &  a  |
e|-------------------------------------------------|
B|-------------9-----10-9--------------------------|
G|-9--11-------------------------------------------|
D|-------------------------------------------------|
A|-------------------------------------------------|
E|-------------------------------------------------|

 | 1  e  &  a  2  e  &  a  3  e  &  a  4  e  &  a  |
e|-------------------------------------------------|
B|-10----------9-----------------------------------|
G|-------------------------11----------9-----------|
D|-------------------------------------------------|
A|-------------------------------------------------|
E|-------------------------------------------------|

 | 1  e  &  a  2  e  &  a  3  e  &  a  4  e  &  a  |
e|-------------------------------------------------|
B|-10----------9-----------------------------------|
G|-------------------------11----------9-----------|
D|-------------------------------------------------|
A|-------------------------------------------------|
E|-------------------------------------------------|

Part 4.
 | 1  e  &  a  2  e  &  a  3  e  &  a  4  e  &  a  |
e|-------------------------------------------------|
B|b14r12-9--12-12----12----------------------------|
G|-------------------------------------------------|
D|-------------------------------------------------|
A|-------------------------------------------------|
E|-------------------------------------------------|

 | 1  e  &  a  2  e  &  a  3  e  &  a  4  e  &  a  |
e|-11-12-------11-12-------11-12-------------------|
B|-------9--9--------9--9--------9--9--------------|
G|-------------------------------------------------|
D|-------------------------------------------------|
A|-------------------------------------------------|
E|-------------------------------------------------|

 | 1  e  &  a  2  e  &  a  3  e  &  a  4  e  &  a  |
e|-------------------------------------------------|
B|-10----------9-----------------------------------|
G|-------------------------11----------9-----------|
D|-------------------------------------------------|
A|-------------------------------------------------|
E|-------------------------------------------------|

 | 1  e  &  a  2  e  &  a  3  e  &  a  4  e  &  a  |
e|-------------------------------------------------|
B|-10----------9-----------------------------------|
G|-------------------------11----------9-----------|
D|-------------------------------------------------|
A|-------------------------------------------------|
E|-------------------------------------------------|

 | 1  e  &  a  2  e  &  a  3  e  &  a  4  e  &  a  |
e|-------------------------------------------------|
B|-------------9-----10-9--------------------------|
G|----9-----11-------------------------------------|
D|-------------------------------------------------|
A|-------------------------------------------------|
E|-------------------------------------------------|

 | 1  e  &  a  2  e  &  a  3  e  &  a  4  e  &  a  |
e|-------------------------------------------------|
B|-------------9-----10-9--------------------------|
G|-9--11-------------------------------------------|
D|-------------------------------------------------|
A|-------------------------------------------------|
E|-------------------------------------------------|

 | 1  e  &  a  2  e  &  a  3  e  &  a  4  e  &  a  |
e|-------------------------------------------------|
B|-10----------9-----------------------------------|
G|-------------------------11----------9-----------|
D|-------------------------------------------------|
A|-------------------------------------------------|
E|-------------------------------------------------|

 | 1  e  &  a  2  e  &  a  3  e  &  a  4  e  &  a  |
e|-------------------------------------------------|
B|-10----------9-----------------------------------|
G|-------------------------11----------9-----------|
D|-------------------------------------------------|
A|-------------------------------------------------|
E|-------------------------------------------------|

Figuring out next part is beyond me. :/
Tap to rate this tab
 
# A B C D E F G H I J K L M N O P Q R S T U V W X Y Z