Song name
# A B C D E F G H I J K L M N O P Q R S T U V W X Y Z

Sunlounger - White Sand tab

-------------------------------------------------------------------------------
			     WHITE SAND - Sunlounger
-------------------------------------------------------------------------------
Tabbed by: MilDosmil
Email: rubicon_90@hotmail.com

Tuning: Standard

This part can be heard several times but it sounds as an actual guitar just once.
                  x2                x2                x2                x2
  PM............... PM............... PM............... PM..............        
e|-----------------|-----------------|-----------------|-----------------|
B|-----------------|-----------------|-----------------|-----------------|
G|-----------------|-----------------|-----------------|-----------------|
D|-9-9-9-9-9-9-9-9-|-8-8-8-8-8-8-8-8-|-----------------|-----------------|
A|-7-7-7-7-7-7-7-7-|-6-6-6-6-6-6-6-6-|-4-4-4-4-4-4-4-4-|-7-7-7-7-7-7-7-7-|
E|-----------------|-----------------|-2-2-2-2-2-2-2-2-|-5-5-5-5-5-5-5-5-|


  In this part listen to the song to get the timing right.
e|-----------------------|-----------------------|-----------------------|-----------------------|
B|-----------------------|-----------------------|-----------------------|-----------------------|
G|-----------------------|-----------------------|-----------------------|-----------------------|
D|---9---9---9---9---9---|---9---9---9---9---9---|-----------------------|-----------------------|
A|-7---7---7---7---7---7-|-6---6---6---6---6---6-|---4---4---4---4---4---|---7---7---7---7---7---|
E|-----------------------|-----------------------|-2---2---2---2---2---2-|-5---5---5---5---5---5-|


e|-10p8----8-8...-|-12h13-------|-----------|-----------|-----------|-----------|
B|------10--------|-------------|-----------|-----------|-----------|-----------|
G|----------------|-------14...-|-15..-14..-|-12..-10..-|-15..-14..-|-12..-10..-|x2
D|----------------|-------------|-----------|-----------|-----------|-----------|
A|----------------|-------------|-----------|-----------|-----------|-----------|
E|----------------|-------------|-----------|-----------|-----------|-----------|

 
 These parts have the same
 notes but different timing.
 Listen to the song for it.

e|-1-3-5-6-5-|-1-3-5-6-5-|-----------|-----------|-----------|-----------|
B|-----------|-----------|-----------|-----------|-----------|-----------|
G|-----------|-----------|-15..-14..-|-12..-10..-|-15..-14..-|-12..-10..-|
D|-----------|-----------|-----------|-----------|-----------|-----------|
A|-----------|-----------|-----------|-----------|-----------|-----------|
E|-----------|-----------|-----------|-----------|-----------|-----------|


e|-10p8----8-8...-|-12h13-------|
B|------10--------|-------------|
G|----------------|-------14...-|
D|----------------|-------------|
A|----------------|-------------|
E|----------------|-------------|


Solo
e|-------------|
B|----15-------|
G|-14----17-15-| and it goes on. I haven't figured out the entire solo, just 
D|-------------| the beginning of it. I'll keep working it out and will soon 
A|-------------| tab it.
E|-------------|

Well, that's it for now. It sounds right to me I hope you like it.

| h  hammer-on
| p  pull-off
Tap to rate this tab
# A B C D E F G H I J K L M N O P Q R S T U V W X Y Z