Song name
# A B C D E F G H I J K L M N O P Q R S T U V W X Y Z

Sunloverz - Summer Of Love tab

It's certainly too few tabs of house songs.

First bar is down x4, second bar is down up x2, etc for every second bar. 

Please listen to the song to get the rhythm right. 

Maybe I'll make a chord version of this song too.



e||-7-7--7-7-|-5-5-5-5-|-3-3--3-3-|-3-3-3-3-| 
B||-9-9--9-9-|-7-7-7-7-|-5-5--5-5-|-5-5-5-5-|
G||-9-9--9-9-|-7-7-7-7-|-5-5--5-5-|-5-5-5-5-|
D||-8-8--8-8-|-5-5-5-5-|-3-3--3-3-|-3-3-3-3-|
A||-7-7--7-7-|-5-5-5-5-|-3-3--3-3-|-3-3-3-3-| 
E||----------|---------|----------|---------|

e||-3-3--3-3-|-5-5-5-5-|-7-7--7-7-|-7-7-7-7-|
B||-5-5--5-5-|-7-7-7-7-|-9-9--9-9-|-9-9-9-9-|
G||-5-5--5-5-|-7-7-7-7-|-9-9--9-9-|-9-9-9-9-|
D||-3-3--3-3-|-5-5-5-5-|-8-8--8-8-|-8-8-8-8-|
A||-3-3--3-3-|-5-5-5-5-|-7-7--7-7-|-7-7-7-7-|
E||----------|---------|----------|---------|


Please send me an e-mail if you find anything wrong with these tabs.

Tap to rate this tab
# A B C D E F G H I J K L M N O P Q R S T U V W X Y Z