Song name
# A B C D E F G H I J K L M N O P Q R S T U V W X Y Z

Sunn O - Hunting And Gathering Cydonia tab

-------------------------------------------------------------------------------
			     Hunting and Gathering (Cydonia) - Sunn O)))
-------------------------------------------------------------------------------
Tabbed by: ianfofficial
Email: bermudatriangleofficial@yahoo.com

Tuning:Drop A (A, E, A, D, F#, B)

This is my first tab, so I'm not sure if everything here is entirely correct.

The main droning part of the song:

|--------------------------------------------------------------------------|
|--------------------------------------------------------------------------|
|--------------------------------------------------------------------------|
|-11-11-11-12----11----16--15--9--12--11--11-11-11-15----14----19--19--18--|
|-11-11-11-12----11----16--15--9--12--11--11-11-11-15----14----19--19--18--|
|-11-11-11-12----11----16--15--9--12--11--11-11-11-15----14----19--19--18--|

|--------------------------------------------------------------------------|
|--------------------------------------------------------------------------|
|--------------------------------------------------------------------------|
|--14--15--14--------------------------------------------------------------|
|--14--15--14--------------------------------------------------------------|
|--14--15--14--------------------------------------------------------------|

Around 2:00 in the song, where the choir and horns come in:

|--------------------------------------------------------------------------|
|--------------------------------------------------------------------------|
|--------------------------------------------------------------------------|
|-15----14----11-------7------5------14----13----5-------11------10------5-|
|-15----14----11-------7------5------14----13----5-------11------10------5-|
|-15----14----11-------7------5------14----13----5-------11------10------5-|

|--------------------------------------------------------------------------|
|--------------------------------------------------------------------------|
|--------------------------------------------------------------------------|
|------3------5------1------14------12-------------------------------------|
|------3------5------1------14------12-------------------------------------|
|------3------5------1------14------12-------------------------------------|

Now go back to the main droning part. There's more parts in the song than I
have covered here, but this is about the first 3 to 4 minutes of this 10
minute song. I guess this could be considered the intro of the song. I hope this helps!
Tap to rate this tab
# A B C D E F G H I J K L M N O P Q R S T U V W X Y Z