Song name
# A B C D E F G H I J K L M N O P Q R S T U V W X Y Z

Sunn O - It Took The Night To Believe tab

Help us improve GuitareTab! Take a short survey!
Sunn O)))  It Took The Night to Believe

Tuning  Standard
Tempo: ??? (Very slow)


Okay.. this is the first Sunn O))) tab Ive tried.. Im not entirely sure of the 
but this sounds okay.

Intro/Main Riff:

All of these notes are tremolo picked. Its not a terribly fast tempo, but you need to 
sure the notes blend together.

e|---------------------------------------------------------------------------|
B|---------------------------------------------------------------------------|
G|---------------8~~~~~~~-------------------8~~~~----------------------------|
D|-9~~~~~-7~~~~~----------9~~~~~~~~-7~~~~~~-------7~~~~~~~~------------------|
A|---------------------------------------------------------------------------|
E|---------------------------------------------------------------------------|

Octave Part:, still tremolo picked, (mainly to add some variety)

       Cry yourself to ash...
e|---------------------------------------------------------------------------|
B|---------------------------------------------------------------------------|
G|-16-----14------20-------16-------14------20----14-------------------------|
D|--x------x-------x--------x--------x-------x-----x-------------------------|
A|-14-----12------18-------14-------12------18----12-------------------------|
E|---------------------------------------------------------------------------|

Outtro:

You need more of a treble sound, and be able to hear the pick attack at this point, 
playing it this way:

e|---------------------------------------------------------------------------|
B|-0-0-0-0-0-0---------4-4-4-4-4-4-4----0-0-0-0-0---------4-4-4-4------------|
G|-------------2-2-2-2----------------------------2-2-2-2---------2-2-2-2----|
D|---------------------------------------------------------------------------|
A|---------------------------------------------------------------------------|
E|---------------------------------------------------------------------------|

And Thats it.. at this point you can give your wrist a much needed rest after 6 minutes 
tremolo picking.
Related for It Took The Night To Believe tab