Song name
# A B C D E F G H I J K L M N O P Q R S T U V W X Y Z

Sunna - Power Struggle tab

Sunna, Power Struggle.
 Tabbed by Myke, A_Violet_Fluid@hotmail.com.
  
SUNNA
POWER STRUGGLE


Drop D Tuning

Intro/Outro:

|-------------------------|
|-------------------------|
|-------------------------|
|--3\\----0-3-0--0-3-0-5\\--|
|--3\\----0-3-0--0-3-0-5\\--|
|--3\\----0-3-0--0-3-0-5\\--|

Chorus:

|---------------------------|
|---------------------------|
|---------------------------|
|--0-0-3h5--0-0-0-0--3p0h3--|
|--0-0------0-0-0-0--3p0h3--|
|--0-0------0-0-0-0--3p0h3--|
   ...      .......

Thats pretty much the whole song
Any SUNNA tabs i don't got?
Mail them to me [even if they're wrong]
And i'll try and sort 'em out
So we can all enjoy the SUNNA-y goodness

A_Violet_Fluid@hotmail.com
 
:: Ultimate Guitar Archive :: 
http://www.ultimate-guitar.com 



Tap to rate this tab
# A B C D E F G H I J K L M N O P Q R S T U V W X Y Z