Song name
# A B C D E F G H I J K L M N O P Q R S T U V W X Y Z

Sunna - Insanity Pulse tab

Sunna, Insanity Pulse.
 Tabbed by Myke, A_Violet_Fluid@hotmail.com.
  
SUNNA
INSANITY PULSE


Standard Tuning

Intro (Bass):

|--------------------------|
|--------------------------|
|--------------------------|
|--0----3-0----3-0----3-0--| 

Verse:

|----------------------------|
|----------------------------|
|----------------------------|
|--2-2-2-2-2-2-2-2-2-2-2--5--|
|--2-2-2-2-2-2-2-2-2-2-2--5--|
|--0-0-0-0-0-0-0-0-0-0-0--3--|

Pre-Verse 2:

|------------|
|------------|
|------------|
|--4----4-x--|
|--4----4-x--|
|--2----2-x--| 

Thats All Of It.
A_Violet_Fluid@hotmail.com
 
:: Ultimate Guitar Archive :: 
http://www.ultimate-guitar.com 



Tap to rate this tab
# A B C D E F G H I J K L M N O P Q R S T U V W X Y Z