Song name
# A B C D E F G H I J K L M N O P Q R S T U V W X Y Z

Sunna - Grape tab

SUNNA
GRAPE


Standard Tuning

Intro/Verse/Outro (Guitar 1):

|-------------------------------------------------------|
|-------------------------------------------------------|
|-------------------------------------------------------|
|--14----14--16--16h17--16--14---------------12-----14--|
|-------------------------------16b----12h14-----12-----|
|-------------------------------------------------------|

|----------------------------------------|
|----------------------------------------|
|----------------------------------------|
|--14--16--16h17--19-17--------------17--|
|------------------------16----14--------|
|----------------------------------------|

Intro/Verse (Guitar 2):

        Em7  Em                  A                 Ab
|---------------x-x---7--7---x-x-5---5-5--x-5--xx--4--4-4/5--|
|-------8-8--8--x-x---8--8---x-x-5---5-5--x-5--xx--4--4-4/5--|
|-------7-7--9--x-x---7--7---x-x-6---6-6--x-6--xx--5--5-5/6--|
|-------9-9--9--x-x---9--9---x-x-7---7-7--x-7--xx--6--6-6/7--|
|--0----7-7--7--x-x----------x-x-7---7-7--x-7--xx--6--6-6/7--|
|--0----0-0--0--x-x----------x-x-5---5-5--x-5--xx--4--4-4/5--|

A_Violet_Fluid@hotmail.com
Tap to rate this tab
 
# A B C D E F G H I J K L M N O P Q R S T U V W X Y Z