Song name
# A B C D E F G H I J K L M N O P Q R S T U V W X Y Z

Sunna - Feel The Blade tab

-------------------------------------------------------------------------------
                             Feel The Blade - Sunna
-------------------------------------------------------------------------------
Tabbed by: Callum Williams
E-mail:mullac360@gmail.com

Sunna definitely haven't managed to match their first album "One Minute Science"
as of yet but this is a pretty simple and fun song to play from "After the Third Pin".


Tuning: Standard

Intro:             0:03   x4
E|-----------------|
B|-----------7-----|
G|--1--4--4--7--7--|
D|--2--4--5--7--8--|
A|--2--2--5--5--8--|
E|--------3-----6--|


Verse 1:           0:14   x6
E|-----------------|
B|-----9------12---|
G|--8--9--9---12---|
D|--9--9--10--12---|
A|--9--7--10--10---|
E|--7-----8--------|


Pre Chorus:        0:39   x1
E|-----------------|
B|-----------------|
G|--6--8--9---11---|
D|--7--9--10--12---|
A|--7--9--10--12---|
E|--5--7--8---10---|


Chorus 1:          0:50   x4
E|-----------------|
B|-----------7-----|
G|--1--4--4--7-----|
D|--2--4--5--7-----|
A|--2--2--5--5-----|
E|--------3--------|

                   1:07   x1
E|-----------------|
B|-----------7-----|
G|--1--4--4--7--7--|
D|--2--4--5--7--8--|
A|--2--2--5--5--8--|
E|--------3-----6--|


Verse 2:           1:10   x6
E|-----------------|
B|-----9------12---|
G|--8--9--9---12---|
D|--9--9--10--12---|
A|--9--7--10--10---|
E|--7-----8--------|


Pre Chorus:        1:35   x1
E|-----------------|
B|-----------------|
G|--6--8--9---11---|
D|--7--9--10--12---|
A|--7--9--10--12---|
E|--5--7--8---10---|


Chorus 2:          1:46   x4
E|-----------------|
B|-----------7-----|
G|--1--4--4--7-----|
D|--2--4--5--7-----|
A|--2--2--5--5-----|
E|--------3--------|


Bridge:            2:01   x4
E|-----------------|
B|-----9------12---|
G|--8--9--9---12---|
D|--9--9--10--12---|
A|--9--7--10--10---|
E|--7-----8--------|


Pre Chorus:        2:20   x1
E|-----------------|
B|-----------------|
G|--6--8--9---11---|
D|--7--9--10--12---|
A|--7--9--10--12---|
E|--5--7--8---10---|


Chorus:            2:30   x12
E|-----------------|
B|-----------7-----|
G|--1--4--4--7-----|
D|--2--4--5--7-----|
A|--2--2--5--5-----|
E|--------3--------|


Outro:             3:21   x4
E|-----------------|
B|-----------7-----|
G|--1--4--4--7--7--|
D|--2--4--5--7--8--|
A|--2--2--5--5--8--|
E|--------3-----6--|


End on E
E|-----------------|
B|-----------------|
G|--1--------------|
D|--2--------------|
A|--2--------------|
E|-----------------|
Tap to rate this tab
 
# A B C D E F G H I J K L M N O P Q R S T U V W X Y Z