Song name
# A B C D E F G H I J K L M N O P Q R S T U V W X Y Z

Sunny Day Real Estate - Seven tab

Help us improve GuitareTab! Take a short survey!
This Tab is from the website http://www.sunnydayrealestate.net.
Tabbed by Brian (Ansigod) McCall 

SEVEN - by Sunny Day Real Estate from the album
===== Diary. Written by Dan Hoerner and Jeremy Enigk.

D tuning (D G C F A D) = 1 full step down

Intro (@x)

@1

G1 (right channel) distortion

|--------------------------------------------------------------------|
|--------------------------------------------------------------------|
|-----11---7h9-----9-----9-----9-11----------------------------------|
|-9------------7------7-----7----------------------------------------|
|--------------------------------------------------------------------|
|--------------------------------------------------------------------|
^repeat
G2 (left channel) distortion

|-------10-------10----10-|-------10----------------------------------|
|----12-------12----------|----12-------------------------------------|
|-14-------14-------14----|-14-------14-14fbr-------------------------|
|-------------------------|-------------------------------------------|
|-------------------------|-------------------------------------------|
|-------------------------|-------------------------------------------|
repeat^ ^last time only

@2

G1

|---------------------------------7-----7---------7-----7------------|
|--------------------------------------------------------------------|
|-----------------------------7h9---7h9---7h9-7h9---7h9---7h9--------|
|--------------------------------------------------------------------|
|-7--7-7--7-7-7-9--9-9--9-9-9----------------------------------------|
|--------------------------------------------------------------------|

G2

|---------------------------------------------------------------------|
|---------------------------------------------------------------------|
|-9--9-9--9-9-9-11--11-11--11-11-11-14--14-14--14-14-14-7--7-7--7-7-7-|
|-9--9-9--9-9-9-11--11-11--11-11-11-14--14-14--14-14-14-7--7-7--7-7-7-|
|-7--7-7--7-7-7-9---9--9---9--9--9--12--12-12--12-12-12-5--5-5--5-5-5-|
|---------------------------------------------------------------------|

*1 (verse)

G1 slight distortion

|-0-0-0--0-0---------------------------------------------------------|
|-8-8-8--8-8-----0---0---0---0---0--0--------------------------------|
|-9-9-9--9-9-----12--11--12--11--12-11-----5-5-5-5--5-5--------------|
|-9-9-9--9-9-X-X-12--12--12--12--12-12-X-X-5-5-5-5--5-5--------------|
|-7-7-7--7-7-X-X-10--10--10--10--10-10-X-X-3-3-3-3--3-3--------------|
|------------X-X-----------------------X-X---------------------------|

|-----------------------0-0-0--0-0-----------------------------------|
|-----------------------8-8-8--8-8-----0---0---0---0---0--0----------|
|-12--11--12--11--12-11-9-9-9--9-9-----12--11--12--11--12-11---------|
|-12--12--12--12--12-12-9-9-9--9-9-X-X-12--12--12--12--12-12---------|
|-10--10--10--10--10-10-7-7-7--7-7-X-X-10--10--10--10--10-10...------|
|----------------------------------X-X-------------------------------|
^^^^^distortion^^^^^ ^repeat once

G2 heavy distortion

|--------------------------------------------------------------------|
|--------------------------------------------------------------------|
|--------------------------------------------------------------------|
|--------------------------------------------------------------------|
|--------------------------------------------------------------------|
|-------------------------------------------------------------15\----|

|--------------------------------------------------------------------|
|--------------------------------------------------------------------|
|--------------------------------------------------------------------|
|-5---4---5---4---5--4--2--------------------------------------------|
|-5---4---5---4---5--4--2--------------------------------------------|
|-3---2---3---2---3--2--0--------------------------------------------|

|--------------------------------------------------------------------|
|--------------------------------------------------------------------|
|--------------------------------------------------------------------|
|--------------------------------------------------------------------|
|--------------------------------------------------------------------|
|--------------------------------------------------------------------|

|--------------------------------------------------------------------|
|--------------------------------------------------------------------|
|--------------------------------------------------------------------|
|-5---4---5---4---5--4-----------------------------------------------|
|-5---4---5---4---5--4-----------------------------------------------|
|-3---2---3---2---3--2-----------------------------------------------|

*2

G1 distortion

|-0-0-0--0-0---------------------------------------------------------|
|-8-8-8--8-8-----0---0---0---0---0--0--------------------------------|
|-9-9-9--9-9-----12--11--12--11--12-11-----5-5-5-5--5-5--------------|
|-9-9-9--9-9-X-X-12--12--12--12--12-12-X-X-5-5-5-5--5-5-X-X----------|
|-7-7-7--7-7-X-X-10--10--10--10--10-10-X-X-3-3-3-3--3-3-X-X----------|
|-0-0-0--0-0-X-X-----------------------X-X--------------X-X----------|

|-----------------------|
|-0---0---0---0---0--0--|
|-12--11--12--11--12-11-|
|-12--12--12--12--12-12-|
|-10--10--10--10--10-10-|
|-----------------------|
^repeat

G2 distortion

|--------------------------------------------------------------------|
|--------------------------------------------------------------------|
|----------------0--5-5-5-5-5-5-5-5-5-5-5----------------------------|
|----0--2-----0-----5-5-5-5-5-5-5-5-5-5-5----------------------------|
|-------------------3-3-3-3-3-3-3-3-3-3-3....------------------------|
|-0--------3---------------------------------------------------------|

*3 (pre-chorus)

G1

|--------------------------------------------------------------------|
|--------------------------------------------------------------------|
|--------------------------------12-11-12-11-1211-12-11-12-11-1211---|
|-2--/--7------------------------12-12-12-12-1212-12-12-12-12-1212---|
|--------------------------------10-10-10-10-1010-10-10-10-10-1010---|
|----------------7h8-------------------------------------------------|
repeat^
G2

|--------------------------------------------------------------------|
|--------------------------------------------------------------------|
|-----4-5--4-2-4-----4-5--4-2-4--/7--5--4----------------------------|
|-2h4------------2h4----------------------5--4--5--4--5-4------------|
|-----------------------------------------5--4--5--4--5-4------------|
|-----------------------------------------3--2--3--3--3-4------------|
repeat^
End of pre-chorus (last time only before chorus)

G1

|--------------------------------------------------------------------|
|--------------------------------------------------------------------|
|--------------------------------------------------------------------|
|-----------------------11--9---11--9---11-9-------------------------|
|--------------------------------------------------------------------|
|-8---7---8---7---8--7-----------------------------------------------|

G2

|--------------------------------------------------------------------|
|----------------------/10--10--10--10-10101010\---------------------|
|----------------------/9---9---9---9--9-9-9-9-\---------------------|
|----------------------/7---7---7---7--7-7-7-7-\---------------------|
|-3---2---3---2---3--2--0---0---0---0--0-0-0-0-----------------------|
|--------------------------------------------------------------------|

*4 (chorus)

G1
"You'll taste it. You'll taste it. In time....."
|--------------------------------------------------------------------|
|--------------------------------------------------------------------|
|-------12-12-12-12-------------------9-9-9-9-9-9-9-9-9-9-9-9--------|
|-12-12-12-12-12-12-5--5--5--5--5--5--9-9-9-9-9-9-9-9-9-9-9-9--------|
|-10-10-10-10-10-10-5--5--5--5--5--5--7-7-7-7-7-7-7-7-7-7-7-7--------|
|-------------------3--3--3--3--3--3--0-0-0-0-0-0-0-0-0-0-0-0--------|
^repeat
G2

|--------------------------------------------------------------------|
|--------------------------------------------------------------------|
|-12-12-12-12-12-12-12-12-12-12-12-12-11-11-12--12-12--14-14--12--12-|
|-12-12-12-12-12-12-12-12-12-12-12-12-X--X--X---X--X---X--X---X---X--|
|-10-10-10-10-10-10-10-10-10-10-10-10-9--9--10--10-10--12-12--10--10-|
|--------------------------------------------------------------------|
repeat^
*5 (end of chorus, and end of song)

G1
pm--------------------------------------------------------------------|
|---------------------------------------------------------------------|
|---------------------------------------------------------------------|
|-9-9-9-9-9-9-9-9-9-9-9-9-9-9-9-9-12--11--12--11--12-11-9-------------|
|-9-9-9-9-9-9-9-9-9-9-9-9-9-9-9-9-12--12--12--12--12-12-9-------------|
|-7-7-7-7-7-7-7-7-7-7-7-7-7-7-7-7-10--10--10--10--10-10-7-------------|
|---------------------------------------------------------------------|

G2
pm--------------------------------------------------------------------|
|---------------------------------------------------------------------|
|---------------------------------------------------------------------|
|---------------------------------------------------------------------|
|-2-2-2-2-2-2-2-2-2-2-2-2-2-2-2-2-5---4---5---4---5--4--2-------------|
|-2-2-2-2-2-2-2-2-2-2-2-2-2-2-2-2-5---4---5---4---5--4--2-------------|
|-0-0-0-0-0-0-0-0-0-0-0-0-0-0-0-0-3---2---3---2---3--2--0-------------|
Related for Seven tab