Song name
# A B C D E F G H I J K L M N O P Q R S T U V W X Y Z

Sunny Day Real Estate - 54 tab

-------------------------------------------------------------------------------
			     5/4 - Sunny Day Real Estate
-------------------------------------------------------------------------------
Tabbed by:Matt
Email:mattroth978@gmail.com

Tuning:Half- step down

e|--------------0------------------------0-----------------------------------------|
B|---------7--------7----------------7--------7------------------------------------|
G|------8-------------------------8-----------------------X2-----------------------|
D|---9------------------------9----------------------------------------------------|
A|---9-----------------------------------------------------------------------------|
E|---------------------------------------------------------------------------------|

e|--------------0------------------------0-----------------------------------------|
B|---------7--------7----------------7---------7-----------------------------------|
G|------8------------------------8--------------------------X2---------------------|
D|---8-------------------------8---------------------------------------------------|
A|---9-----------------------------------------------------------------------------|
E|---------------------------------------------------------------------------------|

Thats pretty much the first part of the intro i havent figured out the darker part or 
ending of the song if anyone knows this please email me
Tap to rate this tab
 
# A B C D E F G H I J K L M N O P Q R S T U V W X Y Z