Sunny Day Real Estate - Pillars tab

Intro
e:----------------------:
B:----------3---3---3---:
G:----4---5---5---5---5-:
D:----------------------:
A:--0---0---------------:
E:----------------------:

Verse
e:----------------------:
B:----------3---3---3---:
G:----4---5---5---5---5-:
D:----------------------:
A:--0---0---------------:
E:----------------------:


Lead guitar for verse:

e:------------------------------------0-----:
B:--------------------------------------0---:
G:------------------------------------------: 2x
D:------------------------------------------:
A:-9-9-9-9-9-7-5-5-5-5-5-5-5-5-5-3-2--------:
E:------------------------------------------:

e:---------------------------------------0-----:
B:-----------------------------------------0---:
G:---------------------------------------------: 2x
D:---------------------------------------------:
A:-9-9-9-9^10^9-7-5-5-5-5-5-5-5-5-5-3-2--------:
Tap to rate this tab
 
# A B C D E F G H I J K L M N O P Q R S T U V W X Y Z