Song name
# A B C D E F G H I J K L M N O P Q R S T U V W X Y Z

Sunny Day Real Estate - Tearing In My Heart tab

Tearing in My Heart
Sunny Day Real Estate

hey all, this is a great song.  i didn't notice any tabs on here already so i decided to 
it myself.  any comments, please email me
(dp_leinad@hotmail.com)

/-slide


Intro.

E]----------------------------|
B]----------10------------9---|
G]-------11-----------11------|
D]----(0)---------------------|
A]----------------------------|
E]----------------12----------|

*if that note on the 12th fret, E string is too hard to get, nail it with your thumb

Mini Solo

E]---9/10/9--5/7----------------------------------|
B]---------------7/10--5/7------------------------|
G]--------------------------6/7/6--2/4--2/4-------|
D]-------------------------------------------2/4--|
A]------------------------------------------------|
E]------------------------------------------------|

Verse

E]--------0-0-------0-0-----0-0-----0-0-----0-0-----0-0-------0-0-----0-0-|
B]------------------------------------------------------------------------|
G]--13-13-----11-11-----9-9-----7-7-----6-6-----2-2-----4/6-6-----4-4-----|
D]------------------------------------------------------------------------|
A]------------------------------------------------------------------------|
E]------------------------------------------------------------------------|
    tearing...heart...world....apart....all....most.......too.....hard

chorus
 the "do do do do doo forever fall" part

E]--------------------|
B]------------0-------|
G]--4/6/4-2-----2-----|   *repeat 3
D]----------4-----4/6-|     Times
A]--------------------|
E]--------------------|

then

E]----------------------|
B]------------0---------|
G]--4/6/4-2-----2-------|
D]----------4-----4-2---|
A]--------------------2-|
E]----------------------|
                  "...fall"


Bridge

E]------4---                    E]--------11----|
B]----5---5-                    B]-----12----12-|
G]--6-------  16 times          G]--13----------|
D]----------    then            D]--------------|
A]----------                    A]--------------|
E]----------                    E]--------------|


that's about it.  you gotta improvise with the chorus a bit
any comments, concerns, quyestions...just wanna talk email me
dp_leinad@hotmail.com
Tap to rate this tab
# A B C D E F G H I J K L M N O P Q R S T U V W X Y Z