Song name
# A B C D E F G H I J K L M N O P Q R S T U V W X Y Z

Sunny Day Real Estate - 48 tab

probably my favourite song off of diary. i couldn't find tabs for this anywhere so 
my best shot at it.

sunny day real estate - 48

drop D tuning

INTRO
guitar 1
---------|
---------|
----7p6--|
----7-7--|etc...or you can play it on the open d chord shape
----5-5--|
---------|

guitar 2
----------------------------------------------|
----------------------------------------------|
----7-------/12-12-10/12\10-------------------|
----x---------x--x-x---x-x--------------------|
----5-------/10-10-9-/10\9--------------------|
----------------------------------------------|


VERSES
guitar 1 plays around with the A-octave at the 12th fret, 5th string.
guitar 2 plays a variation of what it played in the intro, just more strumming. or you 
play the intro chords of guitar 1 but with the bass notes D and then G. you get it right? 
around with it.


BREAK
there's probably the two guitars playing, but this one's tabbed out for one.
---------------------------------------------------------------------|
---------------------------------------------------------------------|
--999999-10-1010101010109---/141414141414-15----15-141414------------|
--777777-8--8-8-8-8-8-8-7----x-x-x-x--x-x----12----121212------------|
--777777-8--8-8-8-8-8-8-7---/121212121212-12-------121212------------|
--777777-8--8-8-8-8-8-8-7----0------------0--------0-----------------|

-------------------------------------------------------------------|
-------------------------------------------------------------------|
--999999-10-1010101010109---/141414141414-15-15151515--141414------|
--777777-8--8-8-8-8-8-8-7----x-x-x-x--x-x-----x-x-x-x---x-x-x------|
--777777-8--8-8-8-8-8-8-7---/121212121212-13 13131313--121212------|
--777777-8--8-8-8-8-8-8-7----0------------0--------0---------------|


CHORUS (or pre chorus i guess)
this is all strummed and such but i won't write it out
-------------------------------------------|-----------------|
-------------------------------------------|-----------------|
-7------7/9---9-10-----10-------12---------|---7-6-----------|
-x------x-x---x-x------8--------10----(x4)-|---7-7-----------|etc...
-5------5/7---7/8------8--------10---------|---5-5-----------|
-0------0-----0--------8--------10---------|---0-0-----------|

end on G
------------------------|
------------------------|
-7----------------------|
-7----------------------|
-5----------------------|
-5----------------------|
Tap to rate this tab
# A B C D E F G H I J K L M N O P Q R S T U V W X Y Z