Song name
# A B C D E F G H I J K L M N O P Q R S T U V W X Y Z

Sunny Ledfurd - Get Off My Back tab

This is the main guitar rhythm. This song is tabbed out with a clamp on the first fret 
and tuned in drop D.

~ let ring
. Staccato
h hammer on
p pull off
b bend


E|-----------------------|
B|-----------------------|
G|-----------------------|
D|----3p0--0.0.----------|
A|--------3-----3-5-3----|
D|0~------------------3b-|

or

E|-----------------------|
B|-----------------------|
G|-----------------------|
D|---3p0-----------------|
A|-------3h5-5.-3-5-3----|
D|0~------------------3b-|
Tap to rate this tab
# A B C D E F G H I J K L M N O P Q R S T U V W X Y Z