Song name
# A B C D E F G H I J K L M N O P Q R S T U V W X Y Z

Sunrise Avenue - Forever Yours tab

Artist: Sunrise Avenue
Song: Forever yours

This is not a tab for the accoustic version!

Verse

e|----------------------------------------------------------------------------|
B|----------------------------------------------------------------------------|
G|----------------------------------------------------------------------------|
D|--7--7-7-7-7-5--------------5-10--10-10-10-10-10-10-9---9--9--9--9--10-9----|
A|--7--7-7-7-7-5-8--8-8-8-8-8-5-10--10-10-10-10-10-10-10--10-10-10-10-10-10---|
E|--5--5-5-5-5-5-5--5-5-5-5-5-5-8---8--8--8--8--8--8--7---7--7--7--7--8--7----|

Chorus

e|--5-5-X-X-0-0-X-1-1-1-X-X-3-3-3-X-X-8--8--X-X-8--8--8------X-X--------------|
B|--5-5-X-X-0-0-X-1-1-1-X-X-3-3-3-X-X-8--8--X-X-8--8--8------X-X--------------|
G|--5-5-X-X-1-1-X-2-2-2-X-X-4-4-4-X-X-9--9--X-X-9--9--9--5-5-X-X-4-4-4--------|
D|--7-7-X-X-2-2-X-3-3-3-X-X-5-5-5-X-X-10-10-X-X-8--8--8--7-7-X-X-6-6-6-7------|
A|--7-7-X-X-2-2-X-3-3-3-X-X-5-5-5-X-X-10-10-X-X-10-10-10-8-8-X-X-7-7-7-7------|
E|--5-5-X-X-0-0-X-1-1-1-X-X-3-3-3-X-X-8--8--X-X-8--8--8--5-5-X-X-4-4-4-5------|

End

e|------------------------------------8--8--X-X-8--8--8------X-X--------------|
B|------------------------------------8--8--X-X-8--8--8------X-X--------------|
G|------------------------------------9--9--X-X-9--9--9--5-5-X-X-4-4-4--------|
D|-------------------------5-5--------10-10-X-X-8--8--8--7-7-X-X-6-6-6-7------|
A|---------7-7---------5-5------------10-10-X-X-10-10-10-8-8-X-X-7-7-7-7------|
E|-5-5-8-8-----0-0-1-1---------7-7----8--8--X-X-8--8--8--5-5-X-X-4-4-4-5------|

Tabs by ds_music@web.de
For comments and corrections please email me. ;)
Tap to rate this tab
# A B C D E F G H I J K L M N O P Q R S T U V W X Y Z