Song name
# A B C D E F G H I J K L M N O P Q R S T U V W X Y Z

Sunrise Avenue - Make It Go Away tab

Band: Sunrise Avenue
Song: Make It Go Away
Album: On The Way To Wonderland
Tuning: Standard


If you want to spice up this solo, listen to the song and find out where he bend up the 
notes a little bit...

tabbed by: individux

Solo:

e|---------------------------------------------------------------------------|
B|--------------------------------16-----------------------------------------|
G|----------------------------------15-13-13-15-17-15--13-12-13-12-----------|
D|-13--13-13--12-13-15--13-13--13--------------------------------------------|
A|---------------------------------------------------------------------------|
E|---------------------------------------------------------------------------|

e|---------------------------------------------------------------------------|
B|---------------------------------------------------------------------------|
G|----------12----------------------12-13-12-13-15-13-12-13-12---------------|
D|-13-13-15----15--15--13-15--13-15------------------------------------------|
A|---------------------------------------------------------------------------|
E|---------------------------------------------------------------------------|

e|-----------------------------------------------------------------------------|
B|-------------------------------------16--------------------------------------|
G|-12-13-15--13--15-17--15--17--17b19------------------------------------------|
D|-----------------------------------------------------------------------------|
A|-----------------------------------------------------------------------------|
E|-----------------------------------------------------------------------------|

I think this is correct, but I am not pretty sure, so correct me if I`m wrong :) Have fun!
Tap to rate this tab
 
# A B C D E F G H I J K L M N O P Q R S T U V W X Y Z