Song name
# A B C D E F G H I J K L M N O P Q R S T U V W X Y Z

Sunrise Avenue - Lifesaver tab

Song: Lifesaver
Album: Unholy Ground
Artist: Sunrise Avenue

Capo 1

Intro:

E|-1-3-5--1--1-3-5--1--1-3-5--3--1-|
B|-------1---------1---------1--1--|
G|---------------------------------|
D|---------------------------------|
A|---------------------------------|
E|---------------------------------|




Verse 1:
                   
E|------------------|------------------|------------------|
B|-----6-------6----|-----6-------6----|-----6-------6----|
G|---5---5---5---5--|---5---5---5---5--|---5---5---5---5--|
D|------------------|------------------|-7-------7--------|
A|-8-------8--------|-8-------8--------|------------------|
E|------------------|------------------|------------------|


E|------------------|------------------|
B|-----6-------6----|-----6-------6----|
G|---5---5---5---5--|---5---5---5---5--|
D|-8-------8--------|------------------|
A|------------------|-8-------8--------|
E|------------------|------------------| 2x
           F    C
Don't you ever tire
       Dm     C
Facing all my fires

        Bb      Dm                 C  
I don't need no one but you right now


So, I say


Chorus:
F        Am            Bb               F                           
Oh, my friend, you're holding out your hand

   Bb               F   C        Bb                          
I take it like an oar from the depth

F         Am          Bb           F
Hey, Lifesaver, I'm drowning in despair

             Bb             F      C        Bb
But you're fighting for me right until the end.

      F       C       Bb      F
You pull me back to land and save me once again

E|-1-3-5--1---1-3-5--1---1-3-5--3--1-|
B|-------1--1-------1--1-------1--1--|
G|-----------------------------------|
D|-----------------------------------|
A|-----------------------------------|
E|-----------------------------------|


Verse 2:

E|------------------|------------------|------------------|
B|-----6-------6----|-----6-------6----|-----6-------6----|
G|---5---5---5---5--|---5---5---5---5--|---5---5---5---5--|
D|------------------|------------------|-7-------7--------|
A|-8-------8--------|-8-------8--------|------------------|
E|------------------|------------------|------------------|


E|------------------|------------------|
B|-----6-------6----|-----6-------6----|
G|---5---5---5---5--|---5---5---5---5--|
D|-8-------8--------|------------------|
A|------------------|-8-------8--------|
E|------------------|------------------| 2x

              F        C
No, I don't take for granted
         Dm          C
All the time you've wasted
        Bb   Dm          C   
Making sacrifices for a fool
So, I say


Chorus:
F        Am            Bb               F                           
Oh, my friend, you're holding out your hand

   Bb               F   C        Bb                          
I take it like an oar from the depth

F         Am          Bb           F
Hey, Lifesaver, I'm drowning in despair

             Bb             F      C        Bb
But you're fighting for me right until the end.

      F       C       Bb      F
You pull me back to land and save me once again


F           Am  
You lift me higher,
Bb            F    
You hold the fire,
Bb           F      C         Bb
You make me strong enough to stay
F           Am
You lift me higher,
Bb           F
You hold the fire,
Bb            C
Made up stand tall
        Dm           C
But without you I'd fall


Chorus:
F        Am            Bb               F                           
Oh, my friend, you're holding out your hand

   Bb               F   C        Bb                          
I take it like an oar from the depth

F         Am          Bb           F
Hey, Lifesaver, I'm drowning in despair

             Bb             F      C        Bb
But you're fighting for me right until the end.

      F       C       Bb      F
You pull me back to land and save me once again



F           Am  
You lift me higher,
Bb            F    
You hold the fire,
Bb           F      C         F
You make me strong enough to stay
Tap to rate this tab
# A B C D E F G H I J K L M N O P Q R S T U V W X Y Z