Song name
# A B C D E F G H I J K L M N O P Q R S T U V W X Y Z

Sunrise Avenue - Lifesaver Acoustic tab

Song: Lifesaver
Album: Unholy Ground
Artist: Sunrise Avenue

half-step down tuning! :)



Eb|------------------|------------------|------------------|------------------|------------------|
Bb|-3---3---3---3----|-3---3---3---3----|-5---5---5---5----|-5---5---5---5----|-1---1---1---1----|
Gb|---0---0---0---0--|---0---0---0---0--|---0---0---0---0--|---0---0---0---0--|---0---0---0---0--|
Db|------------------|------------------|------------------|------------------|------------------|
Ab|------------------|------------------|------------------|------------------|------------------|
Eb|------------------|------------------|------------------|------------------|------------------|


                                                                                                
Eb|------------------|------------------|------------------|------------------|------------------|
Bb|-1---1---1---1----|-3---3---3---3----|-3---3---3---3----|-5---5---5---5----|-5---5---3---3----|
Gb|---0---0---0---0--|---0---0---0---0--|---0---0---0---0--|---0---0---0---0--|---0---0---0---0--|
Db|------------------|------------------|------------------|------------------|------------------|
Ab|------------------|------------------|------------------|------------------|------------------|
Eb|------------------|------------------|------------------|------------------|------------------|


                                                                                                
Eb|------------------|------------------|-7---7---7---7----|-7---7---5---5----|-3---3---3---3----|
Bb|-1---1---1---1----|-1---1---1---1----|-8---8---8---8----|-8---8---7---7----|-5---5---5---5----|
Gb|---0---0---0---0--|---0---0---0---0--|---7---7---7------|---7---7---7---7--|---0---0---0---0--|
Db|------------------|------------------|------------------|------------------|------------------|
Ab|------------------|------------------|------------------|------------------|------------------|
Eb|------------------|------------------|------------------|------------------|------------------|


                                                                                                
Eb|-3---3---2---2----|------------------|------------------|-------3-2-0------|------------------|
Bb|-5---5---3---3----|-1---1---1---1----|-1---1---1---1----|-3---3-------0-1--|-1-3--------------|
Gb|---0---0---0---0--|---0---0---0---0--|---0---0---0---0--|---0--------------|------------------|
Db|------------------|------------------|------------------|------------------|------------------|
Ab|------------------|------------------|------------------|------------------|------------------|
Eb|------------------|------------------|------------------|------------------|------------------|


                                                                                                
Eb|------------------|------------------|------------------|------------------|------------------|
Bb|-3---3---3---3----|-3---3---3---3----|-1---1---1---1----|-3---3---3---3----|-1---1---1---1----|
Gb|-0-0---0---0---0--|-0-0---0---0---0--|-0-0---0---0---0--|-0-0---0---0---0--|-0-0---0---0---0--|
Db|-0----------------|-0----------------|-2----------------|-0----------------|-2----------------|
Ab|------------------|------------------|-3----------------|------------------|-3----------------|
Eb|-3----------------|-3----------------|------------------|-3----------------|------------------|


                                                                                                
Eb|---------2--------|------------------|------------------|------------------|------------------|
Bb|-3---3---3---3----|-1---1---1---1----|-1---1---1---1----|-3---3---3---3----|-3-----3-3---3----|
Gb|-0-0---0-2-2---2--|-0-0---0---0---0--|-0-0---0---0---0--|-0-0---0---0---0--|-4-----4-4---4----|
Db|-0-------0--------|-2----------------|-2----------------|-0----------------|-4-----4-4---4----|
Ab|------------------|-3----------------|-3----------------|------------------|-2-----2-2---2----|
Eb|-3----------------|------------------|------------------|-3----------------|------------------|


                                                                                                
Eb|------------------|------------------|------------------|------------------|------------------|
Bb|-1-----1-1---1----|-1---1---1---1----|-3---3---3---3----|-1---1---1---1----|-1---1---1---1----|
Gb|-0-----0-0---0----|-0-0---0---0---0--|-0-0---0---0---0--|-0-0---0---0---0--|-0-0---0---0---0--|
Db|-2-----2-2---2----|-2----------------|-0----------------|-2----------------|-2----------------|
Ab|-3-----3-3---3----|-3----------------|------------------|-3----------------|-3----------------|
Eb|------------------|------------------|-3----------------|------------------|------------------|


                                                                                                
Eb|-3-----------5----|-5-7h7h--7--------|-3-----------5----|-5-7h7h--7--------|-----3-------3----|
Bb|-3---3---3---3----|-3---3---3---3----|-3---3---3---3----|-3---3------------|------------------|
Gb|---0---0---0---0--|---0---0---0---0--|---0---0---0---0--|---0---0----------|---0---0---0---0--|
Db|------------------|------------------|------------------|-------------0h2--|------------------|
Ab|------------------|------------------|------------------|---------0h2------|------------------|
Eb|------------------|------------------|------------------|------------------|-3-------3--------|


                                                                                                
Eb|-----3-------3----|-----3-------3----|-----3-------3----|-----3-------3----|-----3-------3----|
Bb|------------------|------------------|------------------|------------------|------------------|
Gb|---0---0---0---0--|---0---0---0---0--|---0---0---0---0--|---0---0---0---0--|---0---0---0---0--|
Db|------------------|-2-------2--------|-2-------0--------|------------------|------------------|
Ab|------------------|------------------|------------------|-3-------3--------|-3-------3--------|
Eb|-3-------3--------|------------------|------------------|------------------|------------------|


                                                                                                
Eb|-----3---5---3----|-----3---5---3----|------------------|------------------|------------------|
Bb|------------------|------------------|-----0-------0----|-----0-------0----|-----0-------0----|
Gb|---0---0---0---0--|---0---0---0---0--|---0---0---0---0--|---0---0---0---0--|---2---2---2---2--|
Db|------------------|------------------|------------------|------------------|------------------|
Ab|------------------|------------------|------------------|------------------|------------------|
Eb|-3----------------|-3----------------|-3-------3--------|-3-------3--------|-3-------3--------|


                                                                                                
Eb|------------------|------------------|------------------|-----3---5---3----|-----3---5---3----|
Bb|-----0-------0----|-----0-------0----|-----0-------0----|------------------|------------------|
Gb|---2---2---0---0--|---0---0---0---0--|---0---0---0---0--|---0---0---0---0--|---0---0---0---0--|
Db|------------------|-3-------3--------|-3-------3--------|------------------|------------------|
Ab|------------------|------------------|------------------|------------------|------------------|
Eb|-3-------3--------|------------------|------------------|-3----------------|-3----------------|


                                                                                                
Eb|-----3---5---3----|-----3---5---3----|-----3---5---3----|-----3-------3----|------------------|
Bb|------------------|------------------|------------------|------------------|------------------|
Gb|---0---0---0---0--|---0---0---0---0--|---0---0---0---0--|---0---0---0---0--|-5---5-5-5-5-5-5--|
Db|------------------|------------------|-2----------------|-2-------0--------|-5---5-5-5-5-5-5--|
Ab|------------------|------------------|------------------|------------------|-3---3-3-3-3-3-3--|
Eb|-3----------------|-3----------------|------------------|------------------|------------------|


                                                                                                
Eb|------------------|------------------|------------------|------------------|------------------|
Bb|------------------|------------------|------------------|-----3-3h3-3-3-3--|-----3-3h3-3-3-3--|
Gb|-5---5-5-5-5-5-5--|-7---7-7-7-7-7-7--|-7----------------|-0---0-0h0-0-0-0--|-0---0-0h0-0-0-0--|
Db|-5---5-5-5-5-5-5--|-7---7-7-7-7-7-7--|-7----------------|-0---0-0h0-0-0-0--|-0---0-0h0-0-0-0--|
Ab|-3---3-3-3-3-3-3--|-5---5-5-5-5-5-5--|-5----------------|------------------|-2----------------|
Eb|------------------|------------------|------------------|-3----------------|-3----------------|


                                                                                                
Eb|------------------|------------------|------------------|------------------|------------------|
Bb|-----3-3h3-3-3-3--|-----3-3h3-3-3-3--|-----3-3h3-3-3-3--|-----3-3-3---3-3--|-----3-3h3-3-3-3--|
Gb|-0---0-0h0-0-0-0--|-0---0-0h0-0-0-0--|-0---0-0h0-0-0-0--|-0---0-0-2---2-2--|-0---0-0h0-0-0-0--|
Db|-----0-0h0-0-0-0--|-0---0-0h0-0-0-0--|-----0-0h0-0-0-0--|-0---0-0-0---0-0--|-----0-0h0-0-0-0--|
Ab|-3----------------|------------------|-3----------------|------------------|-3----------------|
Eb|------------------|-3----------------|------------------|-3----------------|------------------|


                                                                                                
Eb|------------------|------------------|------------------|------------------|------------------|
Bb|-----3-3h3-3-3-3--|-----3-3h3-3-3-3--|-----3-3h3-3-3-3--|-----3-3h3-3-3-3--|-----3-3h3-3-3-3--|
Gb|-0---0-0h0-0-0-0--|-0---0-0h0-0-0-0--|-4---4-4h4-4-4-4--|-0---0-0h0-0-0-0--|-4---4-4h4-4-4-4--|
Db|-----0-0h0-0-0-0--|-0---0-0h0-0-0-0--|-4---4-4h4-4-4-4--|-----0-0h0-0-0-0--|-4---4-4h4-4-4-4--|
Ab|-3----------------|------------------|-2----------------|-3----------------|-2----------------|
Eb|------------------|-3----------------|------------------|------------------|------------------|


                                                                                                
Eb|------------------|------------------|------------------|------------------|------------------|
Bb|-----3-3h3-3-3-3--|-----3-3-3---3-3--|-----3-3h3-3-3-3--|-----3-3h3-3-3-3--|-----3-3h3-3-3-3--|
Gb|-0---0-0h0-0-0-0--|-0---0-0-2---2-2--|-0---0-0h0-0-0-0--|-0---0-0h0-0-0-0--|-0---0-0h0-0-0-0--|
Db|-----0-0h0-0-0-0--|-0---0-0-0---0-0--|-----0-0h0-0-0-0--|-----0-0h0-0-0-0--|-----0-0h0-0-0-0--|
Ab|-3----------------|------------------|-3----------------|-3----------------|-3----------------|
Eb|------------------|-3----------------|------------------|------------------|------------------|


                                                                                                
Eb|------------------|------------------|------------------|------------------|------------------|
Bb|-----3-3h3-3-3-3--|-----3-3h3-3-3-3--|-----3-3h3-3-3-3--|-----3-3h3-3-3-3--|-----3-3h3-3-3-3--|
Gb|-0---0-0h0-0-0-0--|-0---0-0h0-0-0-0--|-0---0-0h0-0-0-0--|-0---0-0h0-0-0-0--|-0---0-0h0-0-0-0--|
Db|-----0-0h0-0-0-0--|-0---0-0h0-0-0-0--|-0---0-0h0-0-0-0--|-----0-0h0-0-0-0--|-----0-0h0-0-0-0--|
Ab|-3----------------|------------------|------------------|-3----------------|-3----------------|
Eb|------------------|-3----------------|-3----------------|------------------|------------------|


                                                                                                
Eb|------------------|------------------|------------------|------------------|------------------|
Bb|------------------|-3----------------|-3----------------|-3-3-3-3-3-3-3-3--|-3-3-3-3-3-3-3-3--|
Gb|-0----------------|-2----------------|-0----------------|-2-2-2-2-2-2-2-2--|-2-2-2-2-2-2-2-2--|
Db|-0----------------|-2----------------|------------------|-0-0-0-0-0-0-0-0--|-0-0-0-0-0-0-0-0--|
Ab|------------------|-0----------------|-3----------------|------------------|------------------|
Eb|-3----------------|------------------|------------------|------------------|------------------|


                                                                                                
Eb|------------------|------------------|------------------|------------------|------------------|
Bb|-----3-3h3-3-3-3--|-----3-3h3-3-3-3--|-----3-3h3-3-3-3--|-----3-3h3-3-3-3--|-----3-3h3-3-3-3--|
Gb|-0---0-0h0-0-0-0--|-0---0-0h0-0-0-0--|-0---0-0h0-0-0-0--|-0---0-0h0-0-0-0--|-0---0-0h0-0-0-0--|
Db|-0---0-0h0-0-0-0--|-0---0-0h0-0-0-0--|-----0-0h0-0-0-0--|-0---0-0h0-0-0-0--|-----0-0h0-0-0-0--|
Ab|------------------|-2----------------|-3----------------|------------------|-3----------------|
Eb|-3----------------|-3----------------|------------------|-3----------------|------------------|


                                                                                                
Eb|------------------|------------------|------------------|------------------|------------------|
Bb|-----3-3-3---3-3--|-----3-3h3-3-3-3--|-----3-3h3-3-3-3--|-----3-3h3-3-3-3--|-----3-3h3-3-3-3--|
Gb|-0---0-0-2---2-2--|-0---0-0h0-0-0-0--|-0---0-0h0-0-0-0--|-0---0-0h0-0-0-0--|-4---4-4h4-4-4-4--|
Db|-0---0-0-0---0-0--|-----0-0h0-0-0-0--|-----0-0h0-0-0-0--|-0---0-0h0-0-0-0--|-4---4-4h4-4-4-4--|
Ab|------------------|-3----------------|-3----------------|------------------|-2----------------|
Eb|-3----------------|------------------|------------------|-3----------------|------------------|


                                                                                                
Eb|------------------|------------------|------------------|------------------|------------------|
Bb|-----3-3h3-3-3-3--|-----3-3h3-3-3-3--|-----3-3h3-3-3-3--|-----3-3-3---3-3--|-----3-3h3-3-3-3--|
Gb|-0---0-0h0-0-0-0--|-4---4-4h4-4-4-4--|-0---0-0h0-0-0-0--|-0---0-0-2---2-2--|-0---0-0h0-0-0-0--|
Db|-----0-0h0-0-0-0--|-4---4-4h4-4-4-4--|-----0-0h0-0-0-0--|-0---0-0-0---0-0--|-----0-0h0-0-0-0--|
Ab|-3----------------|-2----------------|-3----------------|------------------|-3----------------|
Eb|------------------|------------------|------------------|-3----------------|------------------|


                                                                                                
Eb|------------------|------------------|------------------|------------------|------------------|
Bb|-----3-3h3-3-3-3--|-----3-3h3-3-3-3--|-----3-3h3-3-3-3--|-----3-3h3-3-3-3--|-----3-3h3-3-3-3--|
Gb|-0---0-0h0-0-0-0--|-0---0-0h0-0-0-0--|-0---0-0h0-0-0-0--|-0---0-0h0-0-0-0--|-0---0-0h0-0-0-0--|
Db|-----0-0h0-0-0-0--|-0---0-0h0-0-0-0--|-----0-0h0-0-0-0--|-0---0-0h0-0-0-0--|-----0-0h0-0-0-0--|
Ab|-3----------------|------------------|-3----------------|------------------|-3----------------|
Eb|------------------|-3----------------|------------------|-3----------------|------------------|
Tap to rate this tab
# A B C D E F G H I J K L M N O P Q R S T U V W X Y Z