Song name
# A B C D E F G H I J K L M N O P Q R S T U V W X Y Z

Sunrise Avenue - I Can Break Your Heart tab

Aritst: Snurise Avenue
Song: ICan Break Your Heart
Album: Unholy Ground

Intro:

E|----------------------|--------------------|----------------------|--------------------|
B|----------------------|--------------------|----------------------|--------------------|
G|---6-4-------6-4------|---6-4--------------|---6-4-------6-4------|---6-4--------------|
D|-------6-2-------6-2--|-------6-2-4---2----|-------6-2-------6-2--|-------6-2-4---2----|
A|-4---------4----------|-4------------------|-4---------4----------|-4------------------|
E|----------------------|--------------------|----------------------|--------------------|


                                                                                         
E|----------------------|--------------------|----------------------|--------------------|
B|----------------------|--------------------|----------------------|--------------------|
G|---6-4-------6-4------|---6-4--------------|---6-4-------6-4------|---6-4--------------|
D|-------6-2-------6-2--|-------6-2-4---2----|-------6-2-------6-2--|-------6-2-4---2----|
A|-4---------4----------|-4------------------|-4---------4----------|-4------------------|
E|----------------------|--------------------|----------------------|--------------------|

Play it 2 times, the first time with a clean guitar, the second time with distortion

The verse is also played like this, but with a clean guitar again.

Chrous (sounds better with powerchords):

A#m       G#          C#
   I can break your heart
           F#
cause you need it, oh baby
A#m                     G#                  F#
   you'll have a better live when you been through that
A#m      G#       C#            F#
  I can make you cry and youŽll be a better lady,
A
forevermore
                                                                               
That's all you need to play the song ☺
The 2. verse goes like the first, the chorus is also always the same :)
I don't know the tabs for the solo, but you can play
C# F# E 
Tap to rate this tab
# A B C D E F G H I J K L M N O P Q R S T U V W X Y Z