Song name
# A B C D E F G H I J K L M N O P Q R S T U V W X Y Z

Sunset Rubdown - Colt Stands Up Grows Horns tab

Band: Sunset Rubdown
Song: Cold Stands Up, Grows Horns
Album: Random Spirit Lover
Tabbed By: Dave Sheehan (daveys14@hotmail.com)


This tab covers the guitar part from 1.33 to 2.28 - it's the same
as the vocal / piano melody played earlier in the song. I haven't 
tabbed any of the chords or anything before this as I believe that's 
all keyboard. 



PLEASE rate this tab :) and also, please tab more Sunset Rubdown!



----
1.33
----

e|------------------------10-12--------10---------------------------------|
B|---12-10-------------13-------12----------12-------------10---12-10-8---|
G|-9-------12-9------9-------------------------12-----------------------9-|
D|---------------------------------------------------10-------------------|
A|------------------------------------------------------------------------|
E|------------------------------------------------------------------------|

e|------------------------10-12------15---------------------------|
B|---12-10-------------13-------12-----151312-10-8-10-12--10-8-7--|
G|-9-------12-9------9--------------------------------------------|
D|----------------------------------------------------------------|
A|----------------------------------------------------------------|
E|----------------------------------------------------------------|

e|-------11-11-11-10-10-10-8-8---8-8-10-10-10------------------|
B|--------------------------------------------12-12-12-8-8-8---|
G|-8-8-8-----------------------------------------------------9-|
D|-------------------------------------------------------------|
A|-------------------------------------------------------------|
E|-------------------------------------------------------------|

e|---------------------------------------------------|
B|---12-10----------12-10---------10-12-13-12-8------|
G|-9-------12-8---9-------12-9--9------------------9-|
D|---------------------------------------------------|
A|---------------------------------------------------|
E|---------------------------------------------------|




Tap to rate this tab
# A B C D E F G H I J K L M N O P Q R S T U V W X Y Z