Song name
# A B C D E F G H I J K L M N O P Q R S T U V W X Y Z

Sunset Rubdown - Stallion tab

Band: Sunset Rubdown
Song: Stallion
Album: Random Spirit Lover
Tabbed By: Dave Sheehan (daveys14@hotmail.com)


NOTE: This song is mostly done on keyboard so 
what I've tabbed below is partly keyboard and 
partly guitar. I'll mention which parts are played on
which instrument so that you can choose whether
to play them or not. 


The tab is laid out in the order 
of the song.




PLEASE rate this tab :)



=====
INTRO (played on keyboard)
=====

e|------------------------------------------------------------------|
B|------------------------------------------------------------------|
G|-9-8-8/6-6-5-5-6----------9-8-8/6-6-5-13--13------14----------14--|
D|---------------------7--------------------------------------------|
A|------------------------------------------------------------------|
E|------------------------------------------------------------------|

e|------------------------------------|
B|------------------------------------|
G|-5---7-9---7--------9-8-8/6-6-5-5-6-|
D|--------------7---------------------|
A|------------------------------------|
E|------------------------------------|


e|--------------------------------------------------------------------|
B|--------------------------------------------------------------------|
G|-9-8-8/6-6-5-5-6----------9-8-8/6-6-5-13--13------14-----10-----14--|
D|---------------------7----------------------------------------------|
A|--------------------------------------------------------------------|
E|--------------------------------------------------------------------|

e|------------------------------------|
B|------------------------------------|
G|-5---7-9---7--------9-8-8/6-6-5-5-6-|
D|--------------7---------------------|
A|------------------------------------|
E|------------------------------------|


=====
VERSE - "Stallion...." (tabbed for guitar though may be played on bass)
=====                  (make these power chords if you feel like it)
                       (this is played under second half of intro & chorus)

e|-----------------------------------------------------------------------|
B|-----------------------------------------------------------------------|
G|-----------------------------------------------------------------------|
D|-----------------------------------------------------------------------|
A|---------4-----------------4-----------------3---3h5-----------------4-|
E|-5--5/2------1---5---5/2------1---------1------------3-3-5---5--5/2----|

======
BRIDGE (this actually isn't played at all,
======  but it's the root of the keyboard 
        being played on top of it)  

e|------------------------------|
B|------------------------------|
G|------------------------------|
D|------------------------------|
A|---------4---------------4--4-|
E|-5--5/2-----1--5---5/2--------|

======
CHORUS (played on keyboard. Verse riff is played underneath this.)
======

e|----------------------------------------------------------------|
B|----------------------------------------------------------------|
G|-9-8-8/6-6-5-5-6----------9-8-8/6-6-5-13--13------14--------14--|
D|---------------------7------------------------------------------|
A|----------------------------------------------------------------|
E|----------------------------------------------------------------|

e|----------------------------------|
B|----------------------------------|
G|-5---7-9-7--------9-8-8/6-6-5-5-6-|
D|------------7---------------------|
A|----------------------------------|
E|----------------------------------|

======
BRIDGE (again, not played, but root 
======  of the keyboard) 
        
e|-------------------------------------------------------------------------|
B|-------------------------------------------------------------------------|
G|-------------------------------------------------------------------------|
D|-------------------------------------------------------------------------|
A|---------4-----------------4-----------------3-3-3-2-2-2-3-3-3---------4-|
E|-5--5/2------1---5---5/2------1---------1----------------------5--5/2----|

=======
VERSE 2 (played on keyboard)
======= 

e|------------------------------------|--------------------------------------|
B|-14---12---9---12---7---9-----------|----14---12---9---12--7--9--5---2-----|
G|------------------------------------|--------------------------------------|
D|------------------------------------|--------------------------------------|
A|------------------------------------|--------------------------------------|
E|------------------------------------|--------------------------------------|

Left hand chords: 
  |C#---------------------------------|--C#m-------Em-------Bm-------D-------|

                                
e|-------11------------------|--------------|-------------|
B|-4-------------11----14----|--9--11-9-7---|-------------|
G|---------------------------|------------8-|-------------|
D|---------------------------|--------------|-------------|
A|---------------------------|--------------|-------------|
E|---------------------------|--------------|-------------|

 |-Ebm-----------Bbm---------|-Abm----------|-Abm---------|



e|-79-79-79-57-57-57-45-45-45-------------------------------------------------|
B|----------------------------79-79-79-57-57-57-79-79-79-910-910-910-79-79-79-|
G|----------------------------------------------------------------------------|
D|----------------------------------------------------------------------------|
A|----------------------------------------------------------------------------|
E|----------------------------------------------------------------------------|

 |--C#m--------------Em----------------Bm----------------D--------------------|


e|----------------------67-67-67-79-79-79-911-911-911-1114-1114-1114-911-911-911-69-69-69-|
B|-79-79-79-911-911-911-------------------------------------------------------------------|
G|----------------------------------------------------------------------------------------|
D|----------------------------------------------------------------------------------------|
A|----------------------------------------------------------------------------------------|
E|----------------------------------------------------------------------------------------|

 |--Ebm-----------------Bbm---------------Abm-------------------------Abm-----------------|


NOTE: This next bit can be done 3 ways. The keyboard is listed first,
next is the vocal harmony and finally there's the actual guitar.


   (1.) Keyboard                               (2.) Vocal melody
e|-------------------------------------------|--------------|
B|-911-911-911-79-79-79----------------------|--9--11-9-7---|
G|----------------------811-811-811-68-68-68-|------------8-| (start tremolo 
D|-------------------------------------------|--------------|  picking from 
A|-------------------------------------------|--------------|  last note)
E|-------------------------------------------|--------------|

 |-Abm---------------------------------------|

   (3.) Actual way

e|----------------------------------------|
B|----------------------------------------|
G|-------------------88888888888888888888-| (build up at end 
D|----------------------------------------|  with tremolo picking)
A|----------------------------------------|
E|----------------------------------------|

=====================
EPIC TREMOLO PICK BIT (played on guitar, obviously)
=====================

Tremolo pick all notes - listen for the rhythm!

e|--------------------------10----2--------14/17-------------------|
B|-2------5-----9-------12-----------------------------------------|
G|-----------------------------------------------------------------|
D|-----------------------------------------------------------------|
A|-----------------------------------------------------------------|
E|-----------------------------------------------------------------|

e|---------11-----13----9--|
B|-4-----------------------|  (After this, the guitarist
G|-------------------------|   slides up and down the E string very 
D|-------------------------|   slowly at the pickup end of the neck)
A|-------------------------|
E|-------------------------|

========
BRIDGE 2 (played on keyboard)
========

e|-------------------------------|
B|-7---5-------------------------|
G|---------6---9---4---6---2---4-|
D|-------------------------------|
A|-------------------------------|
E|-------------------------------|

=======
VERSE 3
=======

e|------------------------------------------------------------|
B|------------------------------------------------------------|
G|------------------------------------------------------------|
D|------------------------------------------------------------|
A|---------4-----------------4-----------------3---3h5--------|
E|-5--5/2------1---5---5/2------1---------1------------3-3-5--|

e|------------------------------------------|
B|------------------------------------------|
G|------------------------------------------|
D|------------------------------------------|
A|------3---3h5-------------3---3h5---------|
E|-1------------3-3-5---1-----------3--3--5-|

======
CHORUS
======

NOTE: Keyboard plays the previous intro / chorus riff.
Guitar tremolo picks the notes below:


e|-14------12---|   (play this twice)
B|--------------|
G|--------------|
D|--------------|
A|--------------|
E|--------------|  


========
"SOLO" (I use this term very liberally here)
========

e|----19----19-17----16-14----19-17-12-14-12----16-14----12-10----9-7---|
B|-14----14-------17-------14----------------14-------14-------10-----7-|
G|----------------------------------------------------------------------|
D|----------------------------------------------------------------------|
A|----------------------------------------------------------------------|
E|----------------------------------------------------------------------|

(there's a slight bit between the previous chorus and this which 
I haven't tabbed - it sounds like the chorus keyboard riff or a variation 
done an octave lower)

=====
OUTRO (keyboard)
=====

e|-------11------------------|--------------|
B|-4-------------11----14----|--9--11-9-7---|
G|---------------------------|------------8-|
D|---------------------------|--------------|
A|---------------------------|--------------|
E|---------------------------|--------------|

The left hand chord here is--|-Ab-----------|

The rest of the chords are: Ab, F#, Em, Em, C, F, Fm, F.



That's all. This tab took me forever but it's pretty satisfying to have it all figured out.
Enjoy! :)


Tap to rate this tab
# A B C D E F G H I J K L M N O P Q R S T U V W X Y Z