Song name
# A B C D E F G H I J K L M N O P Q R S T U V W X Y Z

Sunset Rubdown - Trumpet Trumpet Toot Toot tab

Check this out for the intro:
http://www.indieguitartabs.com/bands/sunset_rubdown/trumpet_trumpet_toot_toot.html
(The actual tablature past the intro on this link's tab is for You Go On Ahead)


0:10 Tremolo Picking
E|-------------------|
B|-------------------|
G|--5t----6t--5t--4t-|
D|-------------------|
A|-------------------|
E|-------------------|
repeat

0:43 Up an octave

E|--8t-----9t--8t--7t--|
B|---------------------|
G|---------------------|
D|---------------------|
A|---------------------|
E|---------------------|
repeat

1:21
E|--20t-----21t--20t--19t--|
B|-------------------------|
G|-------------------------|
D|-------------------------|
A|-------------------------|
E|-------------------------|
repeat

Solo:

2:45 -

E|-15---------15/17---------16b17-13---------15b16r15-15b16-15b16r15-|
B|----13v-12v-------13v-12v------------------------------------------|
G|-----------------------------------14v-16v-------------------------|
D|-------------------------------------------------------------------|
A|-------------------------------------------------------------------|
E|-------------------------------------------------------------------|

----


E|-------------------------------------------------------------------------------------------------|
B|-------------------------------------------15-15-------------------------------------------------|
G|-------------------------14-14-16-16-17-17-------16-16-------------------------------14-14-16-16-|
D|-------------14-14-17-17-------------------------------14-14-17-17-------14-14-17-17-------------|
A|-15-15-17-17-------------------------------------------------------17-17-------------------------|
E|-------------------------------------------------------------------------------------------------|

E|-------------------15-15-17-17-19-19-20-20-22-22-19-19-------------------------------------------|
B|-------15-15-17-17-------------------------------------17-17-20-20-------------------------------|
G|-17-17-------------------------------------------------------------19-19-17-17-16-16-------------|
D|-------------------------------------------------------------------------------------17-17-14-14-|
A|-------------------------------------------------------------------------------------------------|
E|-------------------------------------------------------------------------------------------------|


----2x

4:30 -
slight difference


E|-------------------------------------------------------------------------------------------------|
B|-------------------------------------------15-15-------------------------------------------------|
G|-------------------------14-14-16-16-17-17-------16-16-------------------16-16-------------------|
D|-------------14-14-17-17-------------------------------14-14-17-17-------------14-14-17-17-------|
A|-15-15-17-17-------------------------------------------------------17-17-------------------17-17-|
E|-------------------------------------------------------------------------------------------------|

E|-------------------15-15-17-17-19-19-20-20-22-22-19-19-------------------19-19-------------------|
B|-------15-15-17-17-------------------------------------17-17-20-20-------------17-17-20-20-------|
G|-17-17-------------------------------------------------------------19-19-------------------19-19-|
D|-------------------------------------------------------------------------------------------------|
A|-------------------------------------------------------------------------------------------------|
E|-------------------------------------------------------------------------------------------------|

Ending
E|-------------------|
B|-------------------|
G|-------------------|
D|-9-7-5-12-14-16----|
A|-7-5-3-10-12-14-14-|
E|----------------12-|

Created by Andrew Santorelli
Email: a.santorelli@gmail.com
Let me know what you think
Tap to rate this tab
 
# A B C D E F G H I J K L M N O P Q R S T U V W X Y Z