Guitaretab - guitar tabs
Song name
# A B C D E F G H I J K L M N O P Q R S T U V W X Y Z

Sunset Rubdown - Shut Up I Am Dreaming Of Places Where Lovers Have Wings tab

"Shut Up I Am Dreaming of Places Where Lovers Have Wings" by Sunset Rubdown. This song is in Em.

	Em/B	  Em7/B	    Bm   Esus2/B   B	 G/D   Bm/D

e---------7--------7--------7------7-------7-----------------|
B---------8--------8--------7------7-------7-----------------|
G---------9--------7--------7------9-------8------4-----4----|
D---------9--------9--------9------9-------9------5-----4----|
A-------------------------------------------------5-----5----|
E------------------------------------------------------------|


    C/G (ver. 1)   Esus2/F# (ver. 1)    C/G (ver. 2)   Esus2/F# (ver. 2)

e---------3--------------2------------------------------------7---|
B---------5--------------5-------------------8----------------9---|
G---------5--------------4-------------------9----------------9---|
D---------5--------------4------------------10----------------9---|
A-------------------------------------------10--------------------|
E-----------------------------------------------------------------|

The difference between ver.1 and ver.2 chords is version 1 chords
are the ones that he most likely uses in the song, but the 2nd set
are the chords that are easier and more economical to play on the
fretboard. They are absolutely the same, but using ver.2 you can't
get the slide down the neck that is produced on the record.

All other chords are standard chords, most are barred 5. OK here it is.

==============================================================

Em/B    Em7/B    Bm     x2

Em/B        Em7/B        Bm
            Youre on the distant shore
Em/B        Em7/B        Bm
            Youre on the distant shore

C/G          Esus2/F#
Oceans never listen to us anyway,
C/G          Esus2/F#
Oceans never listen to us anyway.
         Esus2/B
And if I fall into the drink,
         B
I will say your name, before I sink.


Em   Am   C   Bm   Am   G   D   (Chord progression #1)

[ Tab from: http://www.guitaretab.com/s/sunset-rubdown/80875.html ]
Em                    Am
He says your name out loud;
               C         Bm              Am  G
At miniature rooms where no ones found;
        D
Its a desperate sound.
Em                   Am
Youre on the distant shore
               C       Bm  Am
He stamps his feet down
              G          D
You hear his knuckles on your door.
Em                   Am
He wants to send you drawings
            C        Bm            Am
Drawings of men with faithful hands
G                             D
They will make such good boyfriends
Em                   Am
He wants to tell you stories
            C         Bm
Stories of boys who stomped their feet saying,
Am                     G
Shut  shut up I am dreaming of places
D
Where lovers have wings.


C   A#   A   Eb


VERSE 2 (chord progression 1, same as verse 1)

Ill meet you where the river forks;
When everyone else is dead
Youll be safe on the water
Well be much younger, and we remember.
Youre on the distant shore
I stamp my feet down
Down do you hear knuckles
On your door. Do you understand
What Im finding for Oh,

G                         Em
Oceans never listen to us anyway.
G                          Em
Oceans never listen to us anyway.
G
And if I fall into the drink,
Em
I will say your name, before I sink.
G                        Em
Oceans never listen to us anyway.

================================================================

SOLO (over Chord progression #1)- tremolo pick the high e string

12--15--12---15----12--10--7--5---7


15--17--19---12--15--12--10--12--10--7


10--12--15--10--12--15--10--12--15--17--19


17--19--17--12--5--7


10--12--15--10--12--15--10---15--17--19---24

================================================================

G/D (Bm/D alternate between the two)

                  C
Im afraid of the water;
                  C
Im afraid of the sky.
                  C
Im tired of waiting.

G                         Em
Oceans never listen to us anyway,
G                         Em
Oceans never listen to us anyway.
G                         Em
And if I fall into the drink,
G                         Em
I will say your name, before I sink.
G                         Em
Oceans never listen to us anyway.

Em/B    Em7/B    Bm
So dont make a sound.
Dont make a sound.
Related for Shut Up I Am Dreaming Of Places Where Lovers Have Wings tab