Song name
# A B C D E F G H I J K L M N O P Q R S T U V W X Y Z

Sunset Rubdown - Stadiums And Shrines Ii tab

Help us improve GuitareTab! Take a short survey!
stadiums and shrines ii by sunset rubdown from the album "shut up i am dreaming"
tabbed by loopdeloop kindly direct all comments and questions to loopdeloop123@yahoo.com
tuning from high to low ebf#dae
timing is tabbed approximately if at all
this song is in 6/8 time

-------------------
intro/interlude
e |------------------------------7+--------|
b |--------7+------------7+------------7+--|
f#|--7+------------7+----------------------|
d |-----5+------------5+------------5+-----|
a |----------------------------------------|
e |----------------------------------------|

tremelo note played during 1st verse
e |--14t--|
b |-------|
f#|-------|
d |-------|
a |-------|
e |-------|

fill                    fill ends on
e |--------------------|------------------------|
b |----------------15--|------------------------|
f#|--15br-12----12-----|--15br-12-10/12\10-10/--|
d |----------14--------|------------------------|
a |--------------------|------------------------|
e |--------------------|------------------------|

bridge 1, 2                                ending 1              ending 2
e |---------------------------------------|--14-12----12--------|---------------------|
b |--15-12----12--------------------------|--------15----15-12--|--15-12----12--------|
f#|--------15----15-12--------------------|---------------------|--------15----15-12--|
d |--------------------14/16\14-12----12--|---------------------|---------------------|
a |--------------------------------14-----|---------------------|---------------------|
e |---------------------------------------|---------------------|---------------------|

verse 2
e |--19---17------------------|
b |----------20-19--19/20\19--|
f#|---------------------------|
d |---------------------------|
a |---------------------------|
e |---------------------------|
    
verse 2 pt.2                              played on the offbeat from the keyboard
e |------------|---------------|---------|------|
b |-----15-15--|--15----15-15--|--15-15--|--15--|
f#|--15--------|-----15--------|---------|------|
d |------------|---------------|---------|------|
a |------------|---------------|---------|------|
e |------------|---------------|---------|------|

outro solo
e |----------------------------------------------
b |----------------------------------------------
f#|----------------------------------------------
d |--12v--12--14-14br-14---12--12v--7--(7)b-5----
a |-------------------------------------------8--
e |----------------------------------------------
                                                          
   --------------------------------------------------------------------------
   ---------------------13--13--13---------------------------------////(22)--
   -----------------------15--15--15---------------------------15t/////------
   --12--12--14-14br-14--------------12--12--14-14bv-14bv-14bv---------------
   --------------------------------------------------------------------------
   --------------------------------------------------------------------------
                                                  at this point start heavily vibrating
                                                   and tremeloing your notes and slide up
                                                   the neck quickly/randomly

   ---------------------------------------------------------------
   ---------------------------------------------------------------
   ---------------------13--13--13--------------------------------
   -----------------------15--15--15------------------------------
   --12--12--14-14br-14--------------12--12--14-14br-14-12-10--7--
   ---------------------------------------------------------------
   ---------------------------------------------------------------

   -----------------------------------------------------------------
   ---------------------13--13--13/-17br-15-17br-15-17br-15-13------
   -----------------------15--15--------------------------------15--
   --12--12--14-14br-14---------------------------------------------
   -----------------------------------------------------------------
   -----------------------------------------------------------------

   ---------------------------------------------------------------------------
   ---------------------------------------------------------------13--13--13--
   -----------------------------------------------------------------15--15----
   --12-12-12-12-12-12-12-12b-12br-12-12-12-14-14-14b-14b-14br-12-------------
   ---------------------------------------------------------------------------
   ---------------------------------------------------------------------------
   these notes are played very fast but it wasnt comfortable calling them tremelo
  
 ------------------------------------------------------------------------
   ------------------------------------------------------------------------
   ------------------------------------------------------------------------
   --12-12-12-12-12-12-12-12-12-12-12-12-14-14-14br--14-12-10-10-10-7-7-7--
   ------------------------------------------------------------------------
   ------------------------------------------------------------------------

   ---------------------------------------------------------------------------
   -------------------------------------------------------------13--13--13----
   ---------------------------------------------------------------15--15--15--
   --12-12-12-12-12-12-12-12-12-12-12-12-14-14-14b-14b-14b-14br---------------
   ---------------------------------------------------------------------------
   ---------------------------------------------------------------------------

   ----------------------------------------------|
   --17br--15-17br--17-15-17br--15-13-13----(0)--|
   --------------------------------------15-(0)--|
   -----------------------------------------(0)--|
   -----------------------------------------(0)--|
   ----------------------------------------------|

a plus+ denotes harmonics
a t denotes tremelo picking
a b denotes bending a note (most bends in this song are a half step)
a br denotes being a note then releasing it
a / indicates a slide up the fretboard; a \ indicates a slide down
notes in (parenthesis) are sounded but may not be played
Related for Stadiums And Shrines Ii tab