Song name
# A B C D E F G H I J K L M N O P Q R S T U V W X Y Z

Sunstroke Project And Olia Tira - Run Away tab

KEY:

 / = slide up
 \ = slide down
 ^ = bend 	
 h = hammer
 p = pull-off
 ~ = vibrato

Drop D Tuning

INTRO  (played on violin in the song):
                                          PART 1
e|----------------------------------6-4-|
B|-4-6-7--4-6-7--4-6--4-6-7--4-6-7------|
G|--------------------------------------|
D|--------------------------------------|
A|--------------------------------------|
D|--------------------------------------|
                                          PART 2
e|---------------------------4----------|
B|-4-6-7--4-6-7--4-6--4-6-7----7-6--7-6-|
G|--------------------------------------|
D|--------------------------------------|
A|--------------------------------------|
D|--------------------------------------|

CHORUS
e|--------------------------------------|
B|--------------------------------------|
G|----------4-4-4-4-----------3-3-3-3---|
D|-1-1-1-1--4-4-4-4--4-4-4-4--3-3-3-3---|
A|-1-1-1-1--2-2-2-2--4-4-4-4--1-1-1-1---|
D|-1-1-1-1-----------4-4-4-4------------|

SOLO (Played on Sax in the song)
e|------------------------------------------7/9----------------------------|
B|-11--11-11-11-9h11-11--11-11-11-9h11-11------11-9------------------------|
G|--------------------------------------------------11---8-8-10-11-8-------|
D|-------------------------------------------------------------------------|
A|-------------------------------------------------------------------------|
D|-------------------------------------------------------------------------|

PRE-CHORUS
e|--------------------------------------|
B|--------------------------------------|
G|--------------------------------------|
D|--------------------------------------|
A|----------2-2-2-------------1-1-1-----|
D|-1-1-1-------------4-4-4--------------|
   |----------- -PALM MUTE-----------|

STRUCTURE 
INTRO: PART 1 and PART 2
INTRO: PART 1 and PART 2
CHORUS: x2
 SOLO : x2
PRE-CHORUS: x4
CHORUS: x4
 SOLO : x2
PRE-CHORUS: x2
CHORUS: x4

Thank you,
           
                              I HOPE IT HELPED =]
Tap to rate this tab
 
# A B C D E F G H I J K L M N O P Q R S T U V W X Y Z