Song name
# A B C D E F G H I J K L M N O P Q R S T U V W X Y Z

Supagroup - Lets Go Get Wasted tab

This is a great band and this is their best song, they're singned to some indie label 
they really kickass.

INTRO:
E-xxxx------------------------|
B-xxxx------------------------|
G-xxxx------------------------|
D-xxxx------------------------|
A-xxxx------------------------|
E-xxxx-2-4---2-4--------------|

VERSE:
E-xx-----xxxx-----xxxx-----xx------------|
B-xx-----xxxx-----xxxx-----xx------------|
G-xx-----xxxx-----xxxx-----xx------------|
D-xx-----xxxx-----xxxx-----xx-6-4---6-4--|
A-xx-4-6-xxxx-4-6-xxxx-4-6-xx-4-2---4-2--|
E-xx-2-4-xxxx-2-4-xxxx-2-4-xx------------|

E--------xxxx-----xxxx-----------------|
B--------xxxx-----xxxx-----------------|
G--------xxxx-----xxxx-----------------|
D--------xxxx-----xxxx-----------------|
A----4-6-xxxx-4-6-xxxx-4-6---6-4-2-4-2-|
E----2-4-xxxx-2-4-xxxx-2-4-------------|

CHORUS:
E---------------------------------------|
B---------------------------------------|
G---------------------------------------|
D-------6-4---------6-4-----------------|
A-6-4---4-2---6-4---4-2-----------------|
E-4-2---------4-2-----------------------|

BRIDGE:
E--------------------|
B--------------------|
G--------------------|
D--------------------|
A-6----4-6----6-6-6--|
E-4----2-4-----------|
Tap to rate this tab
# A B C D E F G H I J K L M N O P Q R S T U V W X Y Z