Song name
# A B C D E F G H I J K L M N O P Q R S T U V W X Y Z

Super 400 - Faces To The Sun tab

Main riff:
e---------------------------------------------------------------------------|
b---------------------------------------------------------------------------|
g---------------------------------------------------------------------------|
d--5p3---------------5p3---------------5p3---------------5p3----------------|
a------6-3-6~--1h4-3-----6-3-6~--1h4-3-----6-3-6~--1h4-3-----6-3-6~--1h4-3--|
e---------------------------------------------------------------------------|

Verse:
Cm (play root note, then strum chord lightly)

Chorus:
e---------------------------------------------------------------------------|
b---------------------------------------------------------------------------|
g--8-10-10-10-10---8-8-8-8-8------------------8-10-10-10-10---8-8-8-8-8-----|
d--8-10-10-10-10---8-8-8-8-8---8-8-8-8-8------8-10-10-10-10---8-8-8-8-8-----|
a--6-8--8--8--8----6-6-6-6-6---8-8-8-8-8------6-8--8--8--8----6-6-6-6-6-----|
e------------------------------6-6-6-6-6------------------------------------|

e------------------------------------|
b----------------4-------------------|
g--------------5---5-3---------------|
d--8-8-8-8-8-----------5-3-1p0-------|
a--8-8-8-8-8-------------------3-----|
e--6-6-6-6-6-------------------------|
Tap to rate this tab
# A B C D E F G H I J K L M N O P Q R S T U V W X Y Z