Song name
# A B C D E F G H I J K L M N O P Q R S T U V W X Y Z

Super Extra Bonus Party - Everything Flows tab

-------------------------------------------------------------------------------
			  Everything Flows Intro - Super Extra Bonus Party
-------------------------------------------------------------------------------
Tabbed by: Dmullar


Tuning: Standard

Intro Chords: Eb Dm Ab

e|------------------------------------------------------------------------------|
B|------------------------------------------------------------------------------|
G|-------------------------------5-3--------------------------------------------|
D|------------------------------------6-5---------------------------------------|
A|--------1-3----3-1-3--3-1-3-1------------5-3-5b-3-----------------------------|
E|---1h3------------------------------------------------------------------------|

www.superextrabonusparty.com
===============================================================================
Tap to rate this tab
# A B C D E F G H I J K L M N O P Q R S T U V W X Y Z