Song name
# A B C D E F G H I J K L M N O P Q R S T U V W X Y Z

Super Furry Animals - Hangin With Howard Marks tab

Help us improve GuitareTab! Take a short survey!
try this folks

e -------------------------------------------------|
B 10---8-----------------------------------10--12--|
G ---------11---9--------9h11----7-----------------|
D -----------------12---------------7--------------|
A -------------------------------------------------|
E -------------------------------------------------|

e ---10---12---10-------10-|
B -----------------12------|
G -------------------------|
D -------------------------|
A -------------------------|
E -------------------------|
Related for Hangin With Howard Marks tab