Song name
# A B C D E F G H I J K L M N O P Q R S T U V W X Y Z

Super Furry Animals - International Language Of Screaming tab

Super Furry Animals: "International Language of Screaming"


INTRO:

e:---0--------------------0----------------------------------------------------|
B:---0--------------------0----------------------------------------------------|
G:---1--------------------1----------------------------------------------------|
D:-----------------------------------------------------------------------------|
A:-2------------2-h-4---2------------2-h-4-------------------------------------|
E:-0---0--2-\-4---------0---0--2-\-4-------------------------------------------|
									  Repeat


VERSE: "It's not where your from...

e:---0--------------------0--------------------0---------------------2---------|
B:---0--------------------0--------------------0---------------------3---------|
G:---1--------------------1--------------------1-------------------2-2---------|
D:-----------------------------------------------------------------0-0---------|
A:-2------------2-h-4---2------------2-h-4---2------------2-h-4----------------|
E:-0---0--2-\-4---------0---0--2-\-4---------0---0--2-\-4----------------------|
									  Repeat


CHORUS: "every time I look me everything seems so stationary

e:----------------------------0--------------------0---------------------------|
B:--7--7--7--7--7--7----------0--------------------0---------------------------|
G:--7--7--7--7--7--7--7--7----1--------------------1---------------------------|
D:--7--7--7--7--7--7--7--7-----------------------------------------------------|
A:--------------------7--7---2-----------2-h-4---2------------2-h-4------------|
E:-10-10--9--9--7--7--5--5---0--0--2-\-4---------0---0--2-\-4------------------|												  Repeat
Tap to rate this tab
 
# A B C D E F G H I J K L M N O P Q R S T U V W X Y Z