Song name
# A B C D E F G H I J K L M N O P Q R S T U V W X Y Z

Super Furry Animals - Something For The Weekend tab

Super Furry Animals: "Something for the weekend"


INTRO:
e:-0-0-0-0-0-0-0-0-0-0-0-0-0-0-0-0-0-0-0-0-0-0-0-0-0-0-0-0-0-0-0-0-------------|
B:-5-5-5-5-4-4-4-4-3-3-3-3-2-2-2-2-5-5-5-5-4-4-4-4-3-3-3-3-2-2-2-2-------------|
G:-----------------------------------------------------------------------------|
D:-----------------------------------------------------------------------------|
A:-----------------------------------------------------------------------------|
E:-----------------------------------------------------------------------------|

VERSE: "First Time I did it for the hell of it...

e:-----------------------------------------------------------------------------|
B:-----------------------------------------------------------------------------|
G:-9-9-9-9-8-8-8-8-7-7-7-7-6-6-6-6-9-9-9-9-8-8-8-8-7-7-7-7-6-6-6-6-------------|
D:-----------------------------------------------------------------------------|
A:-7-7-7-7-6-6-6-6-5-5-5-5-4-4-4-4-7-7-7-7-6-6-6-6-5-5-5-5-4-4-4-4-------------|
E:-----------------------------------------------------------------------------|
									  Repeat


CHORUS: "Your on my mind...

e:----2------3------2------2------2------2------2------2-----------------------|
B:----2------2------2------3------2------2------2------2-----------------------|
G:-----------3------0------2------0------0------0------0-----------------------|
D:-----------0------2---0--0------2------0------2------0-----------------------|
A:----2------x------2----------3--3------2---3--3------2-----------------------|
E:-3--3---2--2---0--0-----------------3--3----------3--3-----------------------|
									  Repeat


LEAD over CHORUS:

e:-----------------------------------------------------------------------------|
B:-----------------------------------------------------------------------------|
G:-12-12---11-11---9-9---7-7--5-5-\-16-16-/-5-5-\-16-16------------------------|
D:-----------------------------------------------------------------------------|
A:-10-10----9--9---7-7---5-5--3-3-\-14-14-/-3-3-\-14-14------------------------|
E:-----------------------------------------------------------------------------|

CHORUS to FINISH:
e:----2------3------2------2------2------2------2------2---2-0-1--2-2----------|
B:----2------2------2------3------2------2------2------2---3-1-1--2-2----------|
G:-----------3------0------2------0------0------0------0---2-0-2--0-0----------|
D:-----------0------2---0--0------2------0------2------0---0-2-3--0-0----------|
A:----2------x------2----------3--3------2---3--3------2-----3-3--2-2----------|
E:-3--3---2--2---0--0-----------------3--3----------3--3-------1--3-3----------|
Tap to rate this tab
# A B C D E F G H I J K L M N O P Q R S T U V W X Y Z