Song name
# A B C D E F G H I J K L M N O P Q R S T U V W X Y Z

Super Junior - Blue Tomorrow tab

Song: Blue Tomorrow              Artist: Super Junior M
Official Website: http://superjunior-m.smtown.com/

First tab, sorry if it's a little off. I think most of the chords are right though. 
to the bottom to find just the melody and the chords

/ = slide or pull-off (you can pluck each one separately as well). Do whatever you want. 
it's 2 notes in 1 word

I added the melody at the bottom. (it's very easy to figure out, but it's for all you 
people out there. Approximately each note is one word. This is based off the chinese version)
* There are no double digit fret numbers, except for one "10" at the end

Enjoy!

[VERSE - A major]

             A                          F#m
Dao le ming tian shuo hao bu zai jian mian
                     D      A            D                 E
Zuo zai jie wei de dian wo yi ge ren dian le yi bei xiang nian
             A                          F#m
Dao le ming tian zhi neng rang ai ca jian
                       D              A               D       
         E
Liang ge ren de xiao lian tian liang qian bian cheng fan huang de zhao pian
       A          F#m
Shen bian <>
      D                    E
Shi xian <>
    A     F#m      D                            E
Ba  wo ai ni  liu zai le xin di fang zai le chun bian


[CHORUS - B major]

B
Dao le ming tian ni jiu li kai wo shen bian
F#               (G#m?)
Dao le ming tian du zi xiang liu xin xu yuan
B                                     E
Xiang yi chang dian ying de wan jie pian

Wo men de jie ju ying yan lei shui de yu yan
E             F#                       G#m
Sui le yi di de nuo yan ping cou bu hui de zuo tian
    E             F#             B
Ke wo reng qi dai qi ji hui chu xian, oh no
E               F#             B
Er ni shen ying   yue lai yue yuan


[VERSE - A major]


A                       F#m
Ai hai liu zai wo fang jian
                    D            A
Hui yi hai hen xin xian yi shun jian
         D              E
Gan jue ni jiu zai yan qian
      A           F#m
Shen bian <>
         D                     E
Zhe shi xian <>
       A     F#m                D                            E
Yi ju  wo ai ni  shen shen liu zai le xin di fang zai le chun bian


[CHORUS - B major]


B
Dao le ming tian ni jiu li kai wo shen bian
F#              (G#m?)
Dao le ming tian du zi xiang liu xin xu yuan
B                                    E
Xiang yi chang dian ying de wan jie pian

Wo men de jie ju ying yan lei shui de yu yan
E            F#                        G#m
Sui le yi di de nuo yan ping cou bu hui de zuo tian
      E             F#             B
Ke wo yi zhi qi dai qi ji hui chu xian, oh no
      E               F#                 G
Er ni li qu shen ying   que yue lai yue yuan


[CODA - D major]


G          A
Mei you ni ai kai shi dong mian
                           D
Gu dan hui zhan ju mei yi tian
         G                                 Bm
Wo zhan zai lu deng xia mian leng qing de jie bian
                      A
Na ge ceng xiang yong de di dian
        G                         F#m  G
Shi wo men yi qi duo guo yu de wu yan, oh


[Chorus - C major]


C
Dao le ming tian ni jiu li kai wo shen bian
G                (Am?)
Dao le ming tian du zi xiang liu xin xu yuan
C                                    F
Xiang yi chang dian ying de wan jie pian

Wo men de jie ju ying yan lei shui de yu yan
F             G                         Am
Sui le yi di de nuo yan ping cou bu hui de zuo tian
       F                         G
Ke wo reng qi dai qi ji hui chu xian, oh no

C
Wo yi ran hai huai nian xiang ai de cong qian
G             (Am?)
Wo yi ran hai deng ni hui dao wo shen bian
C                                  F
Lei liu zai wo bing leng de zhen bian
                      G                     Am
An xia zan ting de shi jian zhi dao ni zai ci chu xian
         F               G              C
Wu fa cheng shou mei you ni de mei yi tian, oh no
F                    C
Wo ai ni bu hui gai bian
F           G          A
Wo ai zhe ni dao yong yuan

VERSE (Key of A major)

E|----------------------------------------------------------------------2-|
B|--022---0232-------0232--------------------0----022---0232-------0232---|
G|-2----------22---------22----42--2-------2-----2----------2-4/2------2--|
D|--------------------------------2---20--0-------------------------------|
A|---------------------------------------4--------------------------------|
E|------------------------------------------------------------------------|

E|-0-0----000-2----------------------------------------------------------|
B|--3-----------3-20-----------------------------------------------------|
G|-----------------------------------------------------------------------|
D|-----------------------------------------------------------------------|
A|-----------------------------------------------------------------------|
E|-----------------------------------------------------------------------|

*Refrain* (Key of A major)

E|-20-------------0-------0---------40-----------------------------------|
B|-----(220--)-----3---(33-3230)-------2----------320----------0---------|
G|---------22---------------------------4/2-----2----2-----2212----------|
D|-----------------------------------------------------------------------|
A|-----------------------------------------------------------------------|
E|-----------------------------------------------------------------------|

CHORUS (Key of B major)

E|---------------------------------0-----2-------------------------444442-|
B|-000------2222200----2222---44444-2--00-0-020-2/0--(22220-222200)-------|
G|-----------------------------------------3------------------------------|
D|----4-------------------------------------------------------------------|
A|------------------------------------------------------------------------|
E|------------------------------------------------------------------------|

E|2-2220------0002--------------200---------------------------------------|
B|-------444-4----420-2/0--(24)----4-20-2/0-------------------------------|
G|-------------------3-----------------3----------------------------------|
D|------------------------------------------------------------------------|
A|------------------------------------------------------------------------|
E|------------------------------------------------------------------------|

VERSE (Back to Key of A)

E|---------------2-0-0-0002----------------------------------------------|
B|-2-0232---0232----3------320-------------------------------------------|
G|-------22-----2--------------------------------------------------------|
D|-----------------------------------------------------------------------|
A|-----------------------------------------------------------------------|
E|-----------------------------------------------------------------------|

*Refrain* (Key of A major)

E|-20-------------0-------0---------40-----------------------------------|
B|-----(220--)-----3---(33-3230)-------2----------320----------0---------|
G|---------22---------------------------4/2-----2----2-----2212----------|
D|-----------------------------------------------------------------------|
A|-----------------------------------------------------------------------|
E|-----------------------------------------------------------------------|

CHORUS (Key of B major... switching key at the end)

E|---------------------------------0-----2-------------------------444442-|
B|-000------2222200----2222---44444-2--00-0-020-2/0--(22220-222200)-------|
G|-----------------------------------------3------------------------------|
D|----4-------------------------------------------------------------------|
A|------------------------------------------------------------------------|
E|------------------------------------------------------------------------|

E|2-2220------0002--------------200--------------------------------------|
B|-------444-4----420-2/0--(24)----4-20-2/0------------------------------|
G|-------------------3-----------------3---------------------------------|
D|-----------------------------------------------------------------------|
A|-----------------------------------------------------------------------|
E|-----------------------------------------------------------------------|

*Coda* (Key of D major)

E|----200-------00---------0----------------0-------0---3-33232-022-(3)--|
B|-023---33-2223-------------3322-002-33-333----33-2--33-----------------|
G|-----------------2-4/2-22----------------------------------------------|
D|-----------------------------------------------------------------------|
A|-----------------------------------------------------------------------|
E|-----------------------------------------------------------------------|

Chorus (Key of C)

E|----------------------------000001-----3--------------------------55555-|
B|-111------3333311----3333---------3--11-10131-3/1---(33331-333311)------|
G|----0-------------------------------------------------------------------|
D|------------------------------------------------------------------------|
A|------------------------------------------------------------------------|
E|------------------------------------------------------------------------|

E|33--3331000-10-------------31010-----------------------------000001----|
B|--------------311----133-(3-----31)--111---3333311----3333---------3---|
G|------------------222-------------------0------------------------------|
D|-----------------------------------------------------------------------|
A|-----------------------------------------------------------------------|
E|-----------------------------------------------------------------------|

E|--3-----5--5555533-78-10-8788---011130----------0--3113578-310---------|
B|11-10131-----------------------3------310-3/1-(3-)------------3-032----|
G|-----------------------------------------------------------------------|
D|-----------------------------------------------------------------------|
A|-----------------------------------------------------------------------|
E|-----------------------------------------------------------------------|
Tap to rate this tab
# A B C D E F G H I J K L M N O P Q R S T U V W X Y Z