Song name
# A B C D E F G H I J K L M N O P Q R S T U V W X Y Z

Super Junior - Sorry Sorry tab

-----------------------------------------------------------------------------
                           Sorry Sorry - Super Junior
-----------------------------------------------------------------------------

Tabbed by: Kshitiz Rana

Tuning: Standard

I did my best.Hope you like it.

-----------------------------------------------------------------------------

~~~~~
Intro
~~~~~

------------------------------------|
------------------------------------|
-------2--2-4--4-6--7--7------------|     <-this is beginning part.
-4--4--2--2-4--4-6--7--7------------|
-4--4--0--0-2--2-4--5--5------------|
-2--2-------------------------------|


-----------------------------------|
-----------------------------------|
-------2--2-4--4-6-----------------|       <-the song starts from here. 
-4--4--2--2-4--4-6--777-6----------|
-4--4--0--0-2--2-4--777-6----------|
-2--2---------------555-4----------|
Dance Dance Dance Dance

------------------------------------|
------------------------------------|
-------2--2-4--4-6--7--7------------|       Again,
-4--4--2--2-4--4-6--7--7------------|
-4--4--0--0-2--2-4--5--5------------|
-2--2-------------------------------|
DaNce dance dance dance

-----------------------------------|
-----------------------------------|
-------2--2-4--4-6-----------------|     
-4--4--2--2-4--4-6--777-6----------|
-4--4--0--0-2--2-4--777-6----------|
-2--2---------------555-4----------|
Dance(Oh),dance(oh),dance(oh oh oh oh)

~~~~~~~
CHORUS:
~~~~~~~

------------------------------------|
------------------------------------|
-------2--2-4--4-6--7--7------------|
-4--4--2--2-4--4-6--7--7------------|
-4--4--0--0-2--2-4--5--5------------|
-2--2-------------------------------|
Sorry Sorry Sorry Sorry Naega naega naega meonjeo

-----------------------------------|
-----------------------------------|
-------2--2-4--4-6-----------------|     
-4--4--2--2-4--4-6--777-6----------|
-4--4--0--0-2--2-4--777-6----------|
-2--2---------------555-4----------|
Nege nege nege ppajyeo  Ppajyeo ppajyeo beoryeo baby

------------------------------------|
------------------------------------|
-------2--2-4--4-6--7--7------------|
-4--4--2--2-4--4-6--7--7------------|
-4--4--0--0-2--2-4--5--5------------|
-2--2-------------------------------|
Shawty Shawty Shawty Shawty Nuni busyeo busyeo busyeo

-----------------------------------|
-----------------------------------|
-------2--2-4--4-6-----------------|     
-4--4--2--2-4--4-6--777-6----------|
-4--4--0--0-2--2-4--777-6----------|
-2--2---------------555-4----------|
Sumi makhyeo makhyeo makhyeo Naega michyeo michyeo baby

~~~~~~
Verse 1
~~~~~~~

------------------------------------|
------------------------------------|
-------2--2-4--4-6--7--7------------|
-4--4--2--2-4--4-6--7--7------------|
-4--4--0--0-2--2-4--5--5------------|
-2--2-------------------------------|
Baraboneun nunbit soge Nunbit soge naneun machi

-----------------------------------|
-----------------------------------|
-------2--2-4--4-6-----------------|     
-4--4--2--2-4--4-6--777-6----------|
-4--4--0--0-2--2-4--777-6----------|
-2--2---------------555-4----------|
Naneun machi mwoe hollin nom (Ijen beoseonajido motae)

------------------------------------|
------------------------------------|
-------2--2-4--4-6--7--7------------|
-4--4--2--2-4--4-6--7--7------------|
-4--4--0--0-2--2-4--5--5------------|
-2--2-------------------------------|
Georeooneun neoui moseup Neoui moseup neoneun machi

-----------------------------------|
-----------------------------------|
-------2--2-4--4-6-----------------|     
-4--4--2--2-4--4-6--777-6----------|
-4--4--0--0-2--2-4--777-6----------|
-2--2---------------555-4----------|
Nae simjangeul barpgo wannabwa (Ijen beoseonajido motae)


------------------------------------|
------------------------------------|
-------2--2-4--4-6--7--7------------|
-4--4--2--2-4--4-6--7--7------------|
-4--4--0--0-2--2-4--5--5------------|
-2--2-------------------------------|
Eodil gana dangdanghage Utneun neoneun maeryeokjeok

-----------------------------------|
-----------------------------------|
-------2--2-4--4-6-----------------|     
-4--4--2--2-4--4-6--777-6----------|
-4--4--0--0-2--2-4--777-6----------|
-2--2---------------555-4----------|
Chakhan yeoja ilsaegiran Saenggakdeureun bopyeonjeok

------------------------------------|
------------------------------------|
-------2--2-4--4-6--7--7------------|
-4--4--2--2-4--4-6--7--7------------|
-4--4--0--0-2--2-4--5--5------------|
-2--2-------------------------------|
Dodohage geochim eopge Jeongmal neoneun hwansangjeok

-----------------------------------|
-----------------------------------|
-------2--2-4--4-6-----------------|     
-4--4--2--2-4--4-6--777-6----------|
-4--4--0--0-2--2-4--777-6----------|
-2--2---------------555-4----------|
Dorikil su eobseulmankeum Nege ppajyeo beoryeosseo
~~~~~~~
cHORUS:(same chords as previous one)
~~~~~~~

Sorry Sorry Sorry Sorry
Naega naega naega meonjeo
Nege nege nege ppajyeo
Ppajyeo ppajyeo beoryeo baby
Shawty Shawty Shawty Shawty
Nuni busyeo busyeo busyeo
Sumi makhyeo makhyeo makhyeo
Naega michyeo michyeo baby


------------------------------------|
------------------------------------|
-------2--2-4--4-6--7--7------------|
-4--4--2--2-4--4-6--7--7------------|
-4--4--0--0-2--2-4--5--5------------|
-2--2-------------------------------|
Ttanttan ttanttada tta ttaranttan


-----------------------------------|
-----------------------------------|
-------2--2-4--4-6-----------------|     
-4--4--2--2-4--4-6--777-6----------|
-4--4--0--0-2--2-4--777-6----------|
-2--2---------------555-4----------|
Ttanttan ttanttada tta Nege banhaebeoryeosseo baby


------------------------------------|
------------------------------------|
-------2--2-4--4-6--7--7------------|
-4--4--2--2-4--4-6--7--7------------|
-4--4--0--0-2--2-4--5--5------------|
-2--2-------------------------------|
Ttanttan ttanttada tta ttaranttan

-----------------------------------|
-----------------------------------|
-------2--2-4--4-6-----------------|     
-4--4--2--2-4--4-6--777-6----------|
-4--4--0--0-2--2-4--777-6----------|
-2--2---------------555-4----------|
Ttanttan ttanttada tta ttarappappara

~~~~~~~
Verse 2
~~~~~~~

[NOTE:This part right here is lil' tricky]
 

Hey girl gir gir gir gir gir girl I  Nunmantteumyeon ni saenggak <- **Pause the 
Instrument in this part**          



-----------------------------------|
-----------------------------------|
-------2--2-4--4-6-----------------|     
-4--4--2--2-4--4-6--777-6----------|
-4--4--0--0-2--2-4--777-6----------|
-2--2---------------555-4----------|
(Hey girl)  Janakkaena sasil neo hana bakke anboyeo


------------------------------------|
------------------------------------|
-------2--2-4--4-6--7--7------------|
-4--4--2--2-4--4-6--7--7------------|
-4--4--0--0-2--2-4--5--5------------|
-2--2-------------------------------|
(Malhaebwa)  Ni mame naega (Malhaebwa)  Jari jabanneunji


------------------------------------|
------------x-----------------------|
-------2--2-4-----------------------|
-4--4--2--2-4-----------------------|
-4--4--0--0-2-----------------------|
-2--2-------x-----------------------|
(Malhaejwo)  Naege marhaejwo (Naneun babo babo babo)


------------------------------------|
------------------------------------|
-------2--2-4--4-6--7--7------------|
-4--4--2--2-4--4-6--7--7------------|
-4--4--0--0-2--2-4--5--5------------|
-2--2-------------------------------|
Jubyeon saramdeureun malhae Naega neomu jeokgeukjeok

-----------------------------------|
-----------------------------------|
-------2--2-4--4-6-----------------|     
-4--4--2--2-4--4-6--777-6----------|
-4--4--0--0-2--2-4--777-6----------|
-2--2---------------555-4----------|
I sesange geureon saram Eodi handurinyago


------------------------------------|
------------------------------------|
-------2--2-4--4-6--7--7------------|
-4--4--2--2-4--4-6--7--7------------|
-4--4--0--0-2--2-4--5--5------------|
-2--2-------------------------------|
Geugeol molla geunyeol molla Shigihamyeo haneun mal

-----------------------------------|
-----------------------------------|
-------2--2-4--4-6-----------------|     
-4--4--2--2-4--4-6--777-6----------|
-4--4--0--0-2--2-4--777-6----------|
-2--2---------------555-4----------|
Naega bureopdamyeon geugeon Geudaedeuri jineun geo

~~~~~~
CHORUS: (same as previous one)
~~~~~~
Sorry Sorry Sorry Sorry
Naega naega naega meonjeo
Nege nege nege ppajyeo
Ppajyeo ppajyeo beoryeo baby
Shawty Shawty Shawty Shawty
Nuni busyeo busyeo busyeo
Sumi makhyeo makhyeo makhyeo
Naega michyeo michyeo baby


(chords same as previous one)
Ttanttan ttanttada tta ttaranttan  
Ttanttan ttanttada tta
Nege banhaebeoryeosseo baby
Ttanttan ttanttada tta ttararara
Ttanttan ttanttada tta ttarappappara


In the below part,you start up with a light strum and gradually strum harder.

------------------------------------|   
------------------------------------|
-------2--2-4--4-6--7--7------------|
-4--4--2--2-4--4-6--7--7------------|
-4--4--0--0-2--2-4--5--5------------|
-2--2-------------------------------|
Let's dance dance dance dance          

-----------------------------------|
-----------------------------------|
-------2--2-4--4-6-----------------|     
-4--4--2--2-4--4-6--777-6----------|
-4--4--0--0-2--2-4--777-6----------|
-2--2---------------555-4----------|
Let's dance dance dance dance                             

------------------------------------|
------------------------------------|
-------2--2-4--4-6--7--7------------|
-4--4--2--2-4--4-6--7--7------------|
-4--4--0--0-2--2-4--5--5------------|
-2--2-------------------------------|
Let's dance dance dance dance                             


-----------------------------------|
-----------------------------------|
-------2--2-4--4-6-----------------|     
-4--4--2--2-4--4-6--777-6----------|
-4--4--0--0-2--2-4--777-6----------|
-2--2---------------555-4----------|
Dance dance  (oh oh oh)                           

~~~~~~~
Verse 3:(Its the same chords as in previous verses)
~~~~~~~

Hey ije geuman naege wajullae 
Jeongmal michil 
geotman gata yeah Nan neoman 
saranghago shipeo 
Jeoldae dashi hannun pal saenggak eobseo hey, hey, hey

Aeiniragiboda chingugateun Naega doego shipeo 
Neoui modeun gomin seulpeum
Hamkke ganjikhagopa
Dashi eobseul mankeum mankeum
Neoreul neomu saranghae
Naega baran saram niga baro geu
That that that girl
~~~~~~~
CHORUS:(same as previous)
~~~~~~~
Sorry Sorry Sorry Sorry
Naega naega naega meonjeo
Nege nege nege ppajyeo
Ppajyeo ppajyeo beoryeo baby
Shawty Shawty Shawty Shawty
Nuni busyeo busyeo busyeo
Sumi makhyeo makhyeo makhyeo
Naega michyeo michyeo baby

~~~~~~
Ending:
~~~~~~

------------------------------------|
------------------------------------|
-------2--2-4--4-6--7--7------------|______
-4--4--2--2-4--4-6--7--7------------|     |
-4--4--0--0-2--2-4--5--5------------|     |
-2--2-------------------------------|     |
                                          |----2 times
-----------------------------------|      |
-----------------------------------|      |
-------2--2-4--4-6-----------------|______|
-4--4--2--2-4--4-6--777-6----------|      
-4--4--0--0-2--2-4--777-6----------|      
-2--2---------------555-4----------|

------------------------------------|
------------------------------------|
-------2--2-4--4-6--7--7------------|
-4--4--2--2-4--4-6--7--7------------|
-4--4--0--0-2--2-4--5--5------------|
-2--2-------------------------------|
sorry

---------------------------------|
---------------------------------|
-------2--2--4--4--77------------|
-4--4--2--2--4--4--77------------|
-4--4--0--0--2--2--55------------|
-2--2----------------------------|
ha-ha-ha

End 

Tap to rate this tab
 
# A B C D E F G H I J K L M N O P Q R S T U V W X Y Z