Song name
# A B C D E F G H I J K L M N O P Q R S T U V W X Y Z

Super Skunk - Fugaz tab

Links:

https://myspace.com/superskunkrocks
https://www.facebook.com/Superskunkband

Tab:

Riff A:

E----------------------------------------------------------------------------|
B----------------------------------------------------------------------------|
G-------------------------------------------------------------5--------------|
D---------------3-------3-5p3---3p5-----------------------5s7---7s5-3--5p3---|
A-0h3h5--0h3h5-----5-3--3-----5-----5p3h5--0h3h5--5p3h5p3------------------5-|
D-----------------------3----------------------------------------------------|

E------------------------------------------------|
B------------------------------------------------|
G------------------------------------------------|
D------3---------0-------------------------------|
A--3h5----5p3----0-------------------------------|
D-------------3--0-------------------------------|

Riff A1 x3: "Alguna vez te habrá dado por mirar..."

E----------------------------------------------|
B----------------------------------------------|
G----------------------------------------------|
D---------------3-------3--5p3---3p5--------0--|
A-0h3h5--0h3h5-----5-3--3------5-----5p3h5--0--|
D-----------------------3-------------------0--|

Riff A2

E-----------------------------------------------------|
B-----------------------------------------------------|
G--------------------5--------------------------------|
D----------------5s7---7s5-3---5p3--------3--------0--|
A-0h3h5--5p3h5p3-------------------5--3h5---5p3----0--|
D-----------------------------------------------3--0--|


Riff B: "Cómo quema por dentro..."

E----------------------------------------------------------------------|
B-------------------------6------6-------------------------------------|
G----------------3-3------5------5------------------3-3----------------|
D--0-0---3-33-3--3-3------3------3----0-0---3-33-3--3-3--5-55-5--------|
A--0-0---3-33-3--1-1--3h5----3h5------0-0---3-33-3--1-1--5-55-5--------|
D--0-0---3-33-3-----------------------0-0---3-33-3-------5-55-5--------|

                       ????????????
Riff C:

E------------------------------------------|
B------------------------------------------|
G------7----55---44---55-------------------|
D------7----55---44---55---0000--3333--8*--|
A------5----33---22---33---0000--3333--8*--|
D-0-0-----0----0----0------0000--3333--8*--|

...Cuestión de tiempo!!


Riff A1 x2: "Eres capaz de brillar..."

Riff A2

Riff C: "Los átomos de tu cuerpo..."

Riff C2:

E-------------------------------------------------|
B-------------------------------------------------|
G------7----55---44---55--------------------------|
D------7----55---44---55---0000--3333--8*-10-12*--|
A------5----33---22---33---0000--3333--8*-10-12*--|
D-0-0-----0----0----0------0000--3333--8*-10-12*--|

Riff D: (Estribillo) "Caen gotas y al caer..."

E---------------------------------------------------------|
B---------------------------------------------------------|
G------7----55---4455---------7---555---------------------|
D------7----55---4455333------7---555-0-3-5-5s6-5-3-5-----|
A------5----33---2233333------5---333-0-3-5-5s6-5-3-5-----|
D-0-0-----0----0-----333--0-0---0-----0-3-5-5s6-5-3-5-----|

Riff E:

E--------------------:|
B-----------3*---3---:|
G-----------5b7*-7b5-:|  x3
D--0-----------------:|
A--0-----------------:|
D--0-----------------:|

E-----|
B-----|
G-----|
D--0--|
A--0--|
D--0--|

Riff A

Riff A1 x2: "Con la inercia es duro arrancar..."

Riff A2

Riff B: "Cómo queda por dentro..."

Riff C3:

E------------------------------------------------------------------|
B------------------------------------------------------------------|
G------7----55---44---55-------------------------------------------|
D------7----55---44---55---0000--3333--8*-10-12*--10--8*--10--12*--|
A------5----33---22---33---0000--3333--8*-10-12*--10--8*--10--12*--|
D-0-0-----0----0----0------0000--3333--8*-10-12*--10--8*--10--12*--|

Riff D x2: "Caen gotas y al caer..."

E-----------|
B-------3---|
G-------5b7-|
D--0--------|
A--0--------|
D--0--------|
Tap to rate this tab
# A B C D E F G H I J K L M N O P Q R S T U V W X Y Z