Song name
# A B C D E F G H I J K L M N O P Q R S T U V W X Y Z

Super Tones - Unite tab

Help us improve GuitareTab! Take a short survey!
verse
e(-------------8------------6-)
b(----------------------4-----)
g(----8---------------5---5---)
d(------10-8------------------)
a(----------------------------)
E(--8--------8--/4-4----------)

e(------------8-10p8-------------------------------)
b(---------------------4-4h6p4-------3h4p3-3-4-----)
g(---8-----------------------------------------5---)
d(-----10-8--------------------------------------5-)
a(-------------------------------------------------)
E(-8--------8--------4---------4-4/3---------------)

pre-chorus
e(----------------------------)
b(----4---4-------------------)
g(--5-5---5----------------55-)
d(--5---5---6-6-6-6-6-6-6--55-)
a(--3---5---6-6-6-6-6-6-6--33-)
E(------3---4-4-4-4-4-4-4-----)

chorus

e(-------------------------------------------------)
b(-------------------------------------------------)
g(--55-xx-55-xx-55-xx-55-xx----xx----xx----xx----x-)
d(--55-xx-55-xx-55-xx-55-xx-55-xx-55-xx-55-xx-555x-)
a(--33-xx-33-xx-33-xx-33-xx-55-xx-55-xx-55-xx-555x-)
E(--------------------------33-xx-33-xx-33-xx-333x-)

chorus continued
e(-------------------)
b(-----4-------4-----)
g(-----5-------5-----)
d(--6666666666666666-)
a(--6666666666666666-)
E(--4444444444444444-)

bridge
e(---------------------------------------------------------)
b(---------------------------------------------------------)
g(--------5555555555555555---------------------------------)
d(--6-----555555555555555555555555555555556666666666666666-)
a(--6-----333333333333333355555555555555556666666666666666-)
E(--4-4/6-----------------33333333333333334444444444444444-)

bridge continued
e(---------------------------------------------------)
b(---------------------------------------------------)
g(------------------5555555555558888-----------------)
d(--666666666666666655555555555588885555555555555555-)
a(--666666666666666633333333333366665555555555555555-)
E(--4444444444444444----------------3333333333333333-)

bridge continued
e(-----------------------------------)
b(-----------------------------------)
g(-----------------------------------)
d(--66666666666666666666666666666666-)
a(--66666666666666666666666666666666-)
E(--44444444444444444444444444444444-)

these are repeated throughout the last chorus
e(-----)(-----)(-----)
b(-----)(--11-)(-----)
g(-----)(-----)(--11-)
d(--13-)(-----)(-----)
a(-----)(-----)(-----)
E(-----)(-----)(-----)

this is the end of the lead for the last chorus
e(-----------------------)
b(--11-11----------------)
g(--------10-12-10-12----)
d(--------------------12-)
a(-----------------------)
E(-----------------------)

this is the last chord of the song. or you can use 
e(----)                                             e(-----)
b(----)                                             b(-----)
g(--5-)                                             g(-----)
d(--5-)                                             d(--10-)
a(--3-)                                             a(--10-)
E(----)                                             E(--8--)
Related for Unite tab