Song name
# A B C D E F G H I J K L M N O P Q R S T U V W X Y Z

Superbus - Lova Lova tab

Highlighted       Show chord diagrams
----------------------------------------------------------------------------
                      LOVA LOVA - Superbus
----------------------------------------------------------------------------

capo 1st fret

les accords:
   Em
e|---------------|
B|---------------|
G|-----0-----0---|
D|-----2-----2---|
A|---------------|
E|--0-----0------|

  Am
e|---------------|
B|-----1-----1---|
G|-----2-----2---|
D|---------------|
A|---0-----0-----|
E|---------------|

  B
e|---------------|
B|-----4-----4---|
G|-----4-----4---|
D|---------------|
A|---2-----2-----|
E|---------------|

Em Am Em  Em Am B

Em
Simple et facile comme une armée de blondes,
Am                      B     
La lumière les habille comme le soleil sur le monde
Em
Simple et facile comme les femmes de James Bond
Am                                        B
Leurs talons les aiguillent à 10 kilomètres à la ronde

Em
Lova Lova Lova, tes combos combos de pas
Am                         B
Du haut de ton cheval fou, les mettent tous à genoux
Em
Lova Lova Lova, des centaines de filles comme toi
Am             B
Sans tabou, sont en haut du cheval fou

Em Am B Am

Dress code red...
(Dress) Dress code red...

(Champagne pour Madame ?
Campagne pour Monsieur !
I turn you on !
This is the new Cabaret !)

Em
Simple et facile comme une armée de blondes,
Am                     B
La lumière les habille comme le soleil sur le monde

Em
Lova Lova Lova, tes combos combos de pas
Am                         B
Du haut de ton cheval fou, les mettent tous à genoux
Em
Lova Lova Lova, des centaines de filles comme toi
Am            B
Sans tabou, sont en haut du cheval fou

Em Am Em (repetez jusqu'au fin)

Dress code red...
(Dress) Dress code red...(red)

(Lova Lova Lova)

(Mesdames et Messieurs !
Ladys and Gentlemen !
My underwear is end !
Bonsoir !)

(This is) This is the New cabaret !
Dress code red...(red)
Dress code red...
(Dress) Dress code red...

(Lova Lova Lova...
Lova Lova Lova...)

[lyrics taken from www.lyricsmania.com
Tap to rate this tab
# A B C D E F G H I J K L M N O P Q R S T U V W X Y Z