Song name
# A B C D E F G H I J K L M N O P Q R S T U V W X Y Z

Superbus - Radio Song tab

|================|
|   Radio Song   |
|    Superbus    |
|================|

Great song, made famous from Guitar Hero 3 (when I first heard it - yes, I know,
I'm not a true fan so I should be burned at the stake, but whatever :D)
I don't speak French, but I know enough to say this song is awesome! (Not in
French, in English)
Anyway, aside from controversy about where what is played, my tab feels pretty
damn perfect, so...

Enjoy!! :D

Please rate and comment!

====

2 Guitars
Standard Tuning
h   = hammer on
PM  = palm mute
x   = deadened note
[#] = Guitar 2 note (see Verses 1 and 2)
/   = slide up

====

Intro
Guitar 1  x3
e|-----------------------------------------------------------------|
B|-----------------------------------------------------------------|
G|-----------------------------------------------------------------|
D|---------------------------------------------------/5--3--2h3-2--|
A|--3h5-5-5-5---------------7h8--7h8--3h5-5-5-5--------------------|
E|------------5-5-5-5-6-6-6--------------------5-5-5---------------|
There are several places (on the fretboard) where you can play this, so
play around and suit yourself :) I just listened to the clarity
of each note and decided what string it was on.

Guitar 2 comes in on the second play:
e|--x-x---x---x--x----x---|
B|--6-6---6---11-11---11--|
G|--7-7---7---12-12---12--|
D|--7-7---7---12-12---12--|
A|--x-x---x---x--x----x---|
E|--x-x---x---x--x----x---|  x2
If you want to add in the A string, go for it, but I
think it's played like this.

====

Verse 1
Part 1  x3
The two Guitars alternate like so:
e|--x--[x]--x--[x]--x---[x]---x---[x]---|
B|--6--[6]--6--[6]--11--[11]--11--[11]--|
G|--7--[7]--7--[7]--12--[12]--12--[12]--|
D|--7--[7]--7--[7]--12--[12]--12--[12]--|
A|--5--[5]--5--[5]--10--[10]--10--[10]--|
E|--x--[x]--x--[x]--x---[x]---x---[x]---|
[#] is Guitar 2

Part 2 - end of the verse
e|--x--[x]--x--[x]--------------|
B|--6--[6]--6--[6]--------------|
G|--7--[7]--7--[7]----------10--|
D|--7--[7]--7--[7]------11------|
A|--5--[5]--5--[5]--12----------|
E|--x--[x]--x--[x]--------------|

====

Chorus
Guitar 1
e|-----------------------------------------------|
b|-----------------------------------------------|
g|--77777777-------------------------------------|
d|--77777777-77777777-88888888-1010101010101010--|
a|--55555555-77777777-88888888-1010101010101010--|
E|-----------55555555-66666666-8-8-8-8-8-8-8-8---|

e|---------------------------------------------|
b|---------------------------------------------|
g|--77777777-----------------------------------|
d|--77777777-77777777-88888888-----------------|
a|--55555555-77777777-88888888--/10--8--7h8-8--|
E|-----------55555555-66666666-----------------|

Guitar 2
Yes, I'm aware of that insanely awesome high pitched melodic squeal
during the chorus, and it's not guitar - probably synth.
Look at the other tab if you want to learn how to play it anyway, though :)
e|-----------------------------------------------|
b|-----------------------------------------------|
g|--77777777-------------------------------------|
d|--77777777-77777777-88888888-1010101010101010--|
a|--55555555-77777777-88888888-1010101010101010--|
E|-----------55555555-66666666-8-8-8-8-8-8-8-8---|

e|-----------------------------------------------|
b|-----------------------------------------------|
g|--77777777-------------------------------------|
d|--77777777-77777777-88888888-1010101010101010--|
a|--55555555-77777777-88888888-1010101010101010--|
E|-----------55555555-66666666-8-8-8-8-8-8-8-8---|

====

Bridge 1 (No Guitar 2)
Guitar 1
e|-----------------------------------------------------------------|
B|-----------------------------------------------------------------|
G|-----------------------------------------------------------------|
D|---------------------------------------------------/5--3--2h3-2--|
A|--3h5-5-5-5---------------7h8--7h8--3h5-5-5-5--------------------|
E|------------5-5-5-5-6-6-6--------------------5-5-5---------------|

====

Verse 2 (same as 1, except for the ending)
Part 1  x3
e|--x--[x]--x--[x]--x---[x]---x---[x]---|
B|--6--[6]--6--[6]--11--[11]--11--[11]--|
G|--7--[7]--7--[7]--12--[12]--12--[12]--|
D|--7--[7]--7--[7]--12--[12]--12--[12]--|
A|--5--[5]--5--[5]--10--[10]--10--[10]--|
E|--x--[x]--x--[x]--x---[x]---x---[x]---|

Part 2
e|--x--[x]--x--[x]--|
B|--6--[6]--6--[6]--|
G|--7--[7]--7--[7]--|
D|--7--[7]--7--[7]--|
A|--5--[5]--5--[5]--|
E|--x--[x]--x--[x]--|

====

Chorus x2

====

Bridge 2
Both Guitars
e|----------------------------------------------------------|
b|----------------------------------------------------------|
g|--7-7-7-7----12-12-12-12----10-10-10-10-------------------|
d|--7-7-7-7----12-12-12-12----10-10-10-10-------------------|
a|--5-5-5-5----10-10-10-10----8--8--8--8-----/10--8--7h8-7--|
E|----------------------------------------------------------|

e|-------------------------------------------------------|
b|-------------------------------------------------------|
g|--7-7-7-7----12-12-12-12----10-10-10-10----------------|
d|--7-7-7-7----12-12-12-12----10-10-10-10----/5--3--2h3--|
a|--5-5-5-5----10-10-10-10----8--8--8--8-----------------|
E|-------------------------------------------------------|

====

Verse 3
Part 1 - No Guitar 2
Guitar 1  x3
e|--------------13----------12----------10----------|
B|--10-10-10-10----10-10-10----10-10-10---10-12h13--|
G|--------------------------------------------------|
D|--------------------------------------------------|
A|--------------------------------------------------|
E|--------------------------------------------------|
PM  .  .  .  .     .  .  .     .  .  . 

Part 2
Guitars 1 & 2
e|-----------------------|
B|--10-10-10-------------|
G|-----------10~~-9~~~/--|
D|-----------------------|
A|-----------------------|
E|-----------------------|
PM  .  .
                    (Slide up to nowhere. It's quiet, but it's there)

====

Chorus x4

====

End on (both guitars)
e|-----------|
B|-----------|
G|--7-7-7-7--|
D|--7-7-7-7--|
A|--5-5-5-5--|
E|-----------|

Hope that helped!
Don't forget to rate and comment! :D
Tap to rate this tab
 
# A B C D E F G H I J K L M N O P Q R S T U V W X Y Z