Song name
# A B C D E F G H I J K L M N O P Q R S T U V W X Y Z

Supercell - My Dearest tab

Band/Artist: Supercell
Song: My Dearest
Anime: Guilty Crown
My YouTube/Contact: http://www.youtube.com/user/MrTakeru21

I'm still new to tabbing things out but this sounds about 95-100% correct to me ^_^ 
but it if you have any questions just contact me on YouTube.

E|--------------------------------------------------------------|
B|----13-12-10--------------------------------------------------|
G|-12----------12-12--------------------------------------------|
D|-------------------12-12/14-15-14-15-14-15-14-12-10-9-10------|
A|--------------------------------------------------------------|
E|--------------------------------------------------------------|

E|-------------------------15-15-13-12----10-12-----------------|
B|-13~---------13-13-12-13-------------15-----------------------|
G|-12~----------------------------------------------------------|
D|-10~--10-12-10------------------------------------------------|
A|--------------------------------------------------------------|
E|--------------------------------------------------------------|

E|--------------------------------------------------------------|
B|--------------------------------------------------------------|
G|-9~----12-12-10-9---------------------------------------------|
D|----10------------10-12-10-12-10~--10-9-7-10-12-14-15-14-12-10|
A|--------------------------------------------------------------|
E|--------------------------------------------------------------|

E|--------------------------------------------------------------|
B|--------------------------------------------------------------|
G|--------------------------------------------------------------|
D|-7------12-14-14-15-15~-14-12~--------------------------------|
A|---10~--------------------------------------------------------|
E|--------------------------------------------------------------|

E|--------------------------------------------------------------|
B|----13-12-10--------------------------------------------------|
G|-12----------12-12--------------------------------------------|
D|-------------------12-14-15-14-15-14-15-14-12-10--------------| x3
A|--------------------------------------------------------------|
E|--------------------------------------------------------------|

E|--------------------------------------------------------------|
B|----13-12-13----15-13-15----17-18-17-18-17-15-13~-------------|
G|-12----------12----------12-----------------------------------|
D|--------------------------------------------------------------|
A|--------------------------------------------------------------|
E|--------------------------------------------------------------|

E|--------------------------------------------------------------|
B|-13-13-13-12-12-12-13-13--x12---------------------------------|
G|-12-12-12-12-12-12-12-12-------5~-----------------------------|
D|-------------------------------5~-----------------------------|
A|-------------------------------3~-----------------------------|
E|--------------------------------------------------------------|
Tap to rate this tab
# A B C D E F G H I J K L M N O P Q R S T U V W X Y Z