Guitaretab - guitar tabs
Song name
# A B C D E F G H I J K L M N O P Q R S T U V W X Y Z

Superchick - Anthem tab

h=hammer on note
p=pull off note
b=bend, listen to the song to hear how far, its not difficult
s=slide, followed by the fret you slide to (eg. 5s10 slide from 5th to tenth)

INTRO!!!
e--------------------------------|
B--------------------------------|
G----------5-7---------------5-7-|
D--5s7-7-7-5-7- repeat twice-5-7-|
A--5s7-7-7-3-5---------------3-5-|
E--3s5-5-5-----------------------|

Pre verse

e----------------------------|
B----------------------------|
G----------------------------|
D----------------------------| repeat once, then verse starts
A--0-0---0-0---0-0-3-5-6-5-3-|
E------3-----3---------------|

Verse
[ Tab from: http://www.guitaretab.com/s/superchick/140761.html ]
e---------------------------------------------------------------------------|
B---------------------------------------------------------------------------|
G---------------------------------------------------------------------------|
D--0-0-0-0-0-0-0-0-3-3-3-3-3-3-3-3-5-5-5-5-5-5-5-5-5-5-3-5-6-5-3------------|
A---------------------------------------------------------------------------|
E---------------------------------------------------------------------------|

e---------------------------------------------------------------------------|
B---------------------------------------------------------------------------|
G---------------------------------------------------------------------------|
D---------------------------------------------------------------------------|
A--0-0-0-0-0-0-0-0-3-3-3-3-3-3-3-3-5-5-5-5-5-5-5-5-5b-5b-5b-5b-5b-5b-5b-5b--|
E---------------------------------------------------------------------------|

CHORUS:

e-----------|
B-----------|
G----5-7----|
D--7-5-7-5--| repeat, but mute the G chord after playing it the second time
A--7-3-5-5--|
E--5-----3--|

Bridge fill thing:  rather fast, look at how close the notes are

D--------------------------------------------------------------------|
A--0-000-5-000-3-000-0-000-3-333-5-0-000-5-000-3-000-0-000-3-333-5-0-|
E--------------------------------------------------------------------|

And i believe that is the whole song!  Feel free to comment on how i did.
Related for Anthem tab
×
Anthem