Song name
# A B C D E F G H I J K L M N O P Q R S T U V W X Y Z

Superchick - Hero tab

e------------------------------------------|
b------------------------------------------|
g-------4-5--------4-5-------4-5-------7-5-|
d------------------------------------------|
a-0-0-0-----3-3-3--------------------------|
e----------------------3-3-3-----3-3-3-----|

e------------------------------------------|
b------------------------------------------|
g-------4-5--------4-5-------4-5-------7-5-|
d----------------------0-0-0-----0-0-0-----|
a-0-0-0-----3-3-3--------------------------|
e------------------------------------------|
Tap to rate this tab
 
# A B C D E F G H I J K L M N O P Q R S T U V W X Y Z