Song name
# A B C D E F G H I J K L M N O P Q R S T U V W X Y Z

Superchick - I Belong To You tab

Quite a simple melody once your get the hang of it. The Chorus was more difficult 
because it was hard to decipher but this is what I came up with, otherwise you can just strum 
that part.
C2-032030
G2-320030
Am-002210
F-133211
C-032010
Dm-000231
 Intro and Verses
 C2          G2         Am         F       G2        C
e|---------------0-----------------------------------------------|
B|----3-------3---3--------1--------1-------3-----------1--------|
G|---0-------0-----0------2--------2-------0-----------0---------|
D|--2-------0------------2--------3-------0------X3---2----------|
A|-3-------2------------0--------3-------2-----------3-----------|
E|---------------------------------------------------------------|

Chorus
    C      F        Am     Dm       F       G       C
e|-----------1-------0----1---------1----------------------------|
B|----1-----1-1-----1----3-3-------1-1--------------1------------|
G|---0-----2---2---2----2---2-----2---2-------0----0-------------|
D|--2-----3-----3-2----0---------3-----3-----0----2--------------|
A|-3-----3-------0--------------3-------0---2----3---------------|
E|----------------------------------------3----------------------|
Tap to rate this tab
 
# A B C D E F G H I J K L M N O P Q R S T U V W X Y Z