Song name
# A B C D E F G H I J K L M N O P Q R S T U V W X Y Z

Superchick - One Girl Revolution tab

This solo part is so damn nice.......i figured it out myself and there are some 
mistakes.


e------------------|----------------|----------------|----------------|
B------------------|----------------|----------------|----------------|
G------------------|----------------|----------------|----------------|
D------------------|----------------|----------------|----------------|
A----3-------------|----3-----------|----3-----------|----3-----------|
E-333-333----------|-444-4----------|-555-5----------|-444-4----------|

e------------------|----------------|----------------|----------------|
B------------------|----------------|----------------|----------------|
G------------------|----------------|----------------|----------------|
D------------------|----------------|----------------|----------------|
A----3-------------|----3-----------|----3-----------|----3-----------|
E-333-333----------|-444-4----------|-555-5----------|-444-4----------|
Tap to rate this tab
# A B C D E F G H I J K L M N O P Q R S T U V W X Y Z