Song name
# A B C D E F G H I J K L M N O P Q R S T U V W X Y Z

Superchick - Super Trooper tab

Super Trooper
Superchic[k]


Standard tunning: e,b,g,d,a,E

Intro
e----7------6------4------0----|
B------7------7------4------0--|
G------------------------------|  5x
D------------------------------|
A---------6--------------------|
E--7-------------4------0------|

Verse (*=open (everthing else has a palm mute))
e--------------------------------------------------*---------------|
B----------------------------------*---------------7--7-7-7-7-7-7--|
G--*---------------*---------------9--9-9-9-9-9-9--6--6-6-6-6-6-6--|  3x
D--9--9-9-9-9-9-9--6--6-6-6-6-6-6--9--9-9-9-9-9-9--4--4-4-4-4-4-4--|
A--9--9-9-9-9-9-9--6--6-6-6-6-6-6--7--7-7-7-7-7-7------------------|
E--7--7-7-7-7-7-7--4--4-4-4-4-4-4----------------------------------|

Pre-Chorus
[e]-------------------------------------------------------|
[b]--------------------------------------7-7-7-7-7-7-7-7--|
[g]--------8-8-8-8-8-8-8-8-9-9-9-9-9-9-9-6-6-6-6-6-6-6-6--|
[d]--9--9--8-8-8-8-8-8-8-8-9-9-9-9-9-9-9-4-4-4-4-4-4-4-4--|
[a]--9--9--6-6-6-6-6-6-6-6-7-7-7-7-7-7-7------------------|
[E]--7--7-------------------------------------------------|

Chorus
e---------------------------------------------------|
B---------------------------------------------------|
G--------------8-8-8-8-8-8-------------9-9-9-9-9-9--|  3x
D--9-9-9-9-9-9-8-8-8-8-8-8-6-6-6-6-6-6-9-9-9-9-9-9--|
A--9-9-9-9-9-9-6-6-6-6-6-6-6-6-6-6-6-6-7-7-7-7-7-7--|
E--7-7-7-7-7-7-------------4-4-4-4-4-4--------------|

Pre-Verse (stum fast)
e-----------------------------------------------------------|
B-----------------------------------------------------------|
G-----------------------------------------------------------|
D--9-9-9-9-9-9-9-9-9-9-9-9-9-9-9-9-9-9-9-9-9-9-9-9-9-9-9-9--|
A--9-9-9-9-9-9-9-9-9-9-9-9-9-9-9-9-9-9-9-9-9-9-9-9-9-9-9-9--|
E--7-7-7-7-7-7-7-7-7-7-7-7-7-7-7-7-7-7-7-7-7-7-7-7-7-7-7-7--|

Bridge (same as intro then)      (then add this to begining) (then add this)
e--7---7--6---6--4---4-0---0--        --11-9-7--            --11-12-11-9--|
B----7------7------4-----0----        ----------            --------------|
G-----------------------------        ----------            --------------|
D-----------------------------        ----------            --------------|
A-----------------------------        ----------            --------------|
E-----------------------------        ----------            --------------|

Order:Intro,Verse 1,Pre-Chorus,Chorus,Pre-Verse,
      Verse 2,Pre-Chorus,Chorus,Pre-Verse,Bridge
Tap to rate this tab
# A B C D E F G H I J K L M N O P Q R S T U V W X Y Z