Song name
# A B C D E F G H I J K L M N O P Q R S T U V W X Y Z

Superchunk - Floridas On Fire tab

-------------------------------------------------------------------------------
			     Florida's On Fire
-------------------------------------------------------------------------------
Tabbed by: Jeff


repeated riff in section 1:

e|--------0-----------------------------------------------------------------------|
B|--2p0---------------------------------------------------------------------------|
G|------------2--1----------------------------------------------------------------|
D|--------------------------------------------------------------------------------|
A|--------------------------------------------------------------------------------|
E|--------------------------------------------------------------------------------|

Section 1 (verse) power chords:
   C#5  E5
e|-------------------------------------------------------------------------------|
B|-------------------------------------------------------------------------------|
G|--6---9------------------------------------------------------------------------|
D|--6---9------------------------------------------------------------------------|
A|--4---7------------------------------------------------------------------------|
E|-------------------------------------------------------------------------------|


Section 1:

C#5                    E5                          C#5
dont you know that the dirt's on fire down here? - yeah yeah x2

C#5                              E5                            C#5
if you've got the shells build a statue to yourself down here - yeah yeah x2

C#5                  E5                                C#5
dig a tunnel if it's where you want to lie down here - yeah yeah

C#5                            E5                         C#5
sleeping in the smoke 'cuz the dirt's on fire down here - yeah yeah


Section 2 power chords:

   Eb5  B5  A5
e|-----------------------------------------------------------------------------|
B|-----------------------------------------------------------------------------|
G|--8--------------------------------------------------------------------------|
D|--8---9---7------------------------------------------------------------------|
A|--6---9---7------------------------------------------------------------------|
E|------7---5------------------------------------------------------------------|

Section 2 fill:

e|--------0------------------------0---------------0---------------------------|
B|--2--------------2/5-------2-----5\------------------------------------------|
G|-----1-----1/4----------------1---------2p1h2/4------------------------------|
D|-----------------------------------------------------------------------------|
A|-----------------------------------------------------------------------------|
E|-----------------------------------------------------------------------------|


Section 2:

Eb5              B5                       A5
dont you want to breathe dont you want to see where we're going?

Eb5              B5                         A5
dont you want to breathe can't you wave and see nothing's changing

E5
nothing's ever changing

end of section 2:

e|---------0-------------------------------------------------------------------|
B|------------2--------2/4--4/5--5/7--7/9\-------------------------------------|
G|--2p1h2----------------------------------------------------------------------|
D|-----------------------------------------------------------------------------|
A|-----------------------------------------------------------------------------|
E|-----------------------------------------------------------------------------|

Transition into string section


repeated riff played clean:

e|-------2-----0----------------5---7---5----------4-------------------------|
B|----0-----0----0---0-------0----0---0---0-5-5----5-------------------------|
G|------------------------------------------6-6----6-------------------------|
D|--2--------------2----2/4-----------------7-7------------------------------|
A|---------------------------------------------------------------------------|
E|---------------------------------------------------------------------------|

strings and rhythm guitar:

e|---------------------------------------------------------------------------|
B|---------------------------------------------------------------------------|
G|--9-9--6-6---4-4-----------------------------------------------------------|
D|--9-9--6-6---4-4--7-7-7-6--4-4-4-4-4---------------------------------------|
A|--7-7--4-4---2-2--7-7-7-6--4-4-4-4-4---------------------------------------|
E|------------------5-5-5-4--2-2-2-2-2---------------------------------------|


solo:


e|-----------------------------------------------------------------------------|
B|------5-5-------5-5------5-5-------5-5----------5-7b9r7--5--7b9--------------|
G|--6/7------6/7------6/7--------6/7---------6/7-------------------------------|
D|-----------------------------------------------------------------------------|
A|-----------------------------------------------------------------------------|
E|-----------------------------------------------------------------------------|

etc.

| /  slide up
| \  slide down
| h  hammer-on
| p  pull-off
| ~  vibrato
| +  harmonic
| x  Mute note
===============================================================================
Tap to rate this tab
# A B C D E F G H I J K L M N O P Q R S T U V W X Y Z