Song name
# A B C D E F G H I J K L M N O P Q R S T U V W X Y Z

Superchunk - My Noise tab

-------------------------------------------------------------------------------
			     My Noise - Superchunk
-------------------------------------------------------------------------------
Tabbed by: Jeff



main riff

e|---------------------------------------------------------------------------|
B|------------5-----------5---7b8r7------------------------------------------|
G|-----7--------------7------------------------------------------------------|
D|--7-----7------------------------------------------------------------------|
A|---------------------------------------------------------------------------|
E|---------------------------------------------------------------------------|

main rhythm

e|---------------------------------------------------------------------------|
B|---------------------------------------------------------------------------|
G|--7-7-7-7-7-7---5--5---4---------------------------------------------------|
D|--7-7-7-7-7-7---5--5---5---------------------------------------------------|
A|--5-5-5-5-5-5---3--3---5---------------------------------------------------|
E|---------------------------------------------------------------------------|

D (repeat first half of the main riff)
it rides beside me
it has no choice
it's my life
it is my voice
it is stupid
it is my noise

it's old and silver(?)
but to me it's gold
it's never silent
and that's dangerous i'm told
i'm told
yeah

end rhythm gtr

e|---------------------------------------------------------------------------|
B|---------------------------------------------------------------------------|
G|--7-7-7-7---5--5---4-------------------------------------------------------|
D|--7-7-7-7---5--5---5---7---------------------------------------------------|
A|--5-5-5-5---3--3---5---7---------------------------------------------------|
E|-----------------------5---------------------------------------------------|


| /  slide up
| \  slide down
| h  hammer-on
| p  pull-off
| ~  vibrato
| +  harmonic
| x  Mute note
===============================================================================
Tap to rate this tab
# A B C D E F G H I J K L M N O P Q R S T U V W X Y Z