Song name
# A B C D E F G H I J K L M N O P Q R S T U V W X Y Z

Superchunk - The First Part tab

-------------------------------------------------------------------------------
			     The First Part - Superchunk
-------------------------------------------------------------------------------
Tabbed by: Jeff

main rhythm

    E                        D          A5

e|-----0-0-0-0--------------------------0------------------------------------|
B|-----1-1-1-1---------------0-0-0-0----5------------------------------------|
G|--2--2-2-2-2--------------------------X------------------------------------|
D|-------------------6-6-6-6-7-7-7-7----7------------------------------------|
A|-------------------5-5-5-5-5-5-5-5----7------------------------------------|
E|---------------------------------------------------------------------------|

main lead

e|---------------------------------------------------------------------------|
B|--------------------------------------------------8------------------------|
G|--9--------------------------------------------------9/11--9-9--9\---------|
D|--9--------7-7-7-7--9-9-9-9/12-12-12-12--9-9-9-9---------------------------|
A|--7------------------------------------------------------------------------|
E|---------------------------------------------------------------------------|

So this is the first part
We're drunk and the selfless relentless caresses
How long must the first part last
Before we make our respective messes?

(continue rhythm part but with harmonics:
e|---------------------------------------------------------------------------|
B|----*7-*7-*7----*7-*7-*7---*7-*7-*7----------------------------------------|
G|---------------------------------------------------------------------------|
D|---------------------------------------------------------------------------|
A|---------------------------------------------------------------------------|
E|---------------------------------------------------------------------------|

Well all the clocks wound down
Well all the clocks wound down
And all the doors thrown open

One good minute could last me a whole year
One good minute will last me a whole year

A                  G
   Well it's a delicate line
              E
We draw it in pink
              D
We draw it in white
                       C
So take your time with it
               E           D D D
Yeah take your time

I have remembered these things before
Whispered phrases and emotions
I have remembered these things before
Whispered phrases and emotions

And I know that they will only
I know that they will only haunt me

One good minute could last me a whole year
One good minute will last me a whole year

A                  G
   Well it's a delicate line
              E
We draw it in pink
              D
We draw it in white
                       C
So take your time with it
               E           D D D
Yeah take your time

E

e|---------------------------------------------------------------------------|
B|--9-9--9---------------------10-10---10------------------------------------|
G|----------9-9--9---11-11-11------------------------------------------------|
D|--6-6--6---------------------7--7----7-------------------------------------|
A|----------7-7--7---9--9--9-------------------------------------------------|
E|---------------------------------------------------------------------------|

etc.


| /  slide up
| \  slide down
| h  hammer-on
| p  pull-off
| ~  vibrato
| +  harmonic
| x  Mute note
===============================================================================
Tap to rate this tab
# A B C D E F G H I J K L M N O P Q R S T U V W X Y Z